Oops, an error
Loading. Please wait.

Bailalo Tab

version 2
version 2

Whole song

98 views 3 this week
no commentswrite comment
1 2 3 4 5
3 more votes to show rating
add to favorites
launch autoscroll
font size
0
reset
how to read this tab
guitar tuner
×
Best way to learn
"Bailalo"
Autoscroll
slow
fast
+/-
esc
set tempo
stop
ADVERTENCIA: Antes de copiar cada transcripción de ATAME a un archivo de texto, 
selecciona la fuente tipográfica 'COURIER NEW', así no se te moverán los acordes
ni los punteos de su posición original y podrás tocar la canción correctamente.

           _______________________________
          |                               |
          |        'B Á I L A L O'        |
          |  G A R R A S   D E   A M O R  |
          |      (VERSIÓN ORIGINAL)       |
          |_______________________________|


=INTRO 1ª parte= (Punteo)
       Am                 Am
 E----------------------------------------
 B-----1-1-1-1-1-0--------1-1-1-1-1-0-----
 G----2-----------2------2-----------2----
 D---2-------------2----2-------------2---
 A--0------------------0------------------
 E----------------------------------------

      Dm                 Dm
 E-----1-1-1-1-1-0--------1-1-1-1-1-0-----
 B----3-----------3------3-----------3----
 G---2-------------2----2-------------2---
 D--0------------------0------------------
 A----------------------------------------
 E----------------------------------------

   E                      E
 E-----------------------------------------------
 B-----------------------------------------------
 G--9-10-9-7-9---9-10-9----9-10-9-7-9---9-10-9---
 D--------------9------9---------------9------9--
 A-----------------------------------------------
 E-----------------------------------------------

=INTRO 2ª parte= (Punteo)
        Am                     Am
 E-----7-8-8-8-8-8-7----------7-8-8-7-8-7-8-7----
 B---10-------------10------10-------------------
 G--9-----------------9----9------------------9--
 D-----------------------------------------------
 A-----------------------------------------------
 E-----------------------------------------------

          Dm                              Dm
 E------12-13-13-13-13-13-12------------12-13-13-12-13-12-13-12----
 B----15--------------------15--------15---------------------------
 G--14------------------------14----14-------------------------14--
 D-----------------------------------------------------------------
 A-----------------------------------------------------------------
 E-----------------------------------------------------------------

   E                               E
 E--12-13-12-10-12----12-13-12------12-13-12-10-12----12-13-12-----
 B------------------12---------12-------------------12---------12--
 G-----------------------------------------------------------------
 D-----------------------------------------------------------------
 A-----------------------------------------------------------------
 E-----------------------------------------------------------------


=ESTROFA=
      Am
 YO MIRABA QUE TU CUERPO
                          G
 SE MOVÍA CON EL RITMO... BÁILALO... BÁILALO...
       Am
 TU CINTURA VA GIRANDO
                                  G
 CON EL RITMO DE ESTA CUMBIA, MUY ESPECIAL, YO QUIERO BAILAR...

=PRECORO=
         Dm
 Y TÚ ME VUELVES LOCO LOCO CUANDO BAILAS ESTA CUMBIA,
 Am    C    E
 BÁILALO... PARA MÍ...

=CORO=
         Dm                   Am
 POR ESO BAILA BAILA CONMIGO, BAILA BAILA MI AMOR...
  E                        Am
 QUIERO QUE ESTÉS CONMIGO, ESTA NOCHE LOS DOS...
 Dm                   Am
 BAILA BAILA CONMIGO, DAME TU CORAZÓN...
 E                       Am
 PORQUE SI NO ES CONTIGO YO ME MUERO DE AMOR...

 *Se repite la INTRO completa*
 *Se repite: ESTROFA, PRECORO, CORO*

=SOLO de Guitarra=
         Dm             Dm               Am             Am
 E--3-3-3-3-1-0----3-3-3-3-1-0------5-5-5-5-3------5-5-5-5-3------
 B--------------3--------------3--------------6-5------------6-5--
 G----------------------------------------------------------------
 D----------------------------------------------------------------
 A----------------------------------------------------------------
 E----------------------------------------------------------------

            E                     E             Am
 E--12-12-12-12-10--------12-12-12-12-10-------------------------10>12--
 B----------------13-12-----------------13-12----10-10>12--12>13--------
 G----------------------------------------------------------------------
 D----------------------------------------------------------------------
 A----------------------------------------------------------------------
 E----------------------------------------------------------------------

 *Se toca y canta el CORO*
 *Se termina tocando el SOLO de Guitarra 2 veces y

=Final=
         Am
 E-------8--8-8-7----
 B--10-10--------10--
 G-------------------
 D-------------------
 A-------------------
 E-------------------

-------------------------------------- FIN ----------------------------------

 Aquí les van algunas indicaciones para tocar la canción:
   ___________________________________
  |                                   |    CUERDAS de la GUITARRA:
  | Clave Universal   Clave Americana |    E    A    D   G   B   E
  |                                   |    |    |    |   |   |   |
  |       DO  ============== C        |    MI   LA   RE  SOL SI  MI
  |       RE  ============== D        |  Grave                  Agudo
  |       MI  ============== E        |
  |       FA  ============== F        |
  |       SOL ============== G        |
  |       LA  ============== A        |
  |       SI  ============== B        |
  |___________________________________|

 (Acorde)    (Cuerdas)
    |       E A D G B E    Los números corresponden al traste de la guitarra
    |       | | | | | |    donde se pulsa la cuerda señalada, la letra'X'
    |       | | | | | |    significa que no se pulsa la cuerda indicada.
    |       | | | | | |
    |       | | | | | |
    Dm   :  X X 0 2 3 1  ( Re menor )
            | | | | | |
    E    :  0 2 2 1 0 0  ( Mi Mayor )
            | | | | | |
    G    :  3 2 0 0 0 3  ( Sol Mayor )
            | | | | | |
    Am   :  X 0 2 2 1 0  ( La menor )

  ______________________________________________________
 |                                                      |
 |  Equivalancia de notas sostenidas con notas bemoles  |
 |______________________________________________________|
 |                                                      |
 |   C# = Db  ( Do  sostenido  =  Re  bemol )   |
 |   D# = Eb  ( Re  sostenido  =  Mi  bemol )   |
 |   F# = Gb  ( Fa  sostenido  =  Sol bemol )   |
 |   G# = Ab  ( Sol sostenido  =  La  bemol )   |
 |   A# = Bb  ( La  sostenido  =  Re  bemol )   |
 |______________________________________________________|


Hola fanáticos y fanáticas de Garras, mi nombre es Rodrigo, soy chileno y
soy un baladista aficionado, espero que les guste mucho esta cumbia porque
todos los temas de Garras son la raja, por cualquier duda que tengai escríbeme
a RODRYMICKY@ . Disfruta esta transcripción y un saludo pa los CZA*
al grupo Sweet Revenge y besote para mi polola Karen que la quiero mucho...
                             ¡ GRANDE GARRAS !


          +EN MEMORIA DE MI HERMANITA ANDREA SUSANA MUÑOZ ALARCÓN+
                   (*Abril 20,1989 - Diciembre 10,2004+)
             'Que el Señor te tenga en su gloria hermanita mía'

                        'Que el Señor les Bendiga'
JULIO 12, 2005                                       ...El último romántico
=============================
Suggest correction
Give kudos to tab author, rate the tab!
1 2 3 4 5
comments
print report bad tab
guest
You may want to rate the tab now too:
select rating
Wanna post a correction for this tab? Suggest correction