Oops, an error
Loading. Please wait.

Deja Ya De Jugar Chords

14 views 1 this week
no commentswrite comment
1 2 3 4 5
3 more votes to show rating
add to favorites
launch autoscroll
font size
0
reset
transpose
0
reset
display chords
guitar tuner
Autoscroll
slow
fast
+/-
esc
set tempo
stop
Help us to improve Ultimate-Guitar.com Take our survey!
×
=INTRO=
E-7>9-12---7-9-10-9-10-9------10-12-13-12-13-15-16--15-13--12-12
B-----------------------10--------------------------------------
G---------------------------------------------------------------
D---------------------------------------------------------------
A---------------------------------------------------------------
E---------------------------------------------------------------

E--15-13-12-10-
B--------------
G--------------
D--------------
A--------------
E--------------

   C       Em      Am
NO LLORES, NO, NO LLORES
  F           Dm       G
Y DEJA DE MENTIRME, NO LLORES.
    C      Em       Am
NO JUEGUES, NO, NO JUEGUES,
  F                  Dm         G
ESTOY CANSADO DE LO MISMO... CONTIGO
F                     G
SABES MUY BIEN QUE TE AMO,
E                   Am
QUE MI VIDA GIRA EN TORNO A TI,
    F                    Dm            G
SIN TI NO SOY IGUAL, SIN TI NO SOY EL MISMO...

=CORO=
C                              Am
DEJA YA DE JUGAR CON MIS SENTIMIENTOS,
F             Dm         G
DEJA YA DE JUGAR CON EL AMOR,
E                          Am
QUE SIN TU AMOR NO PUEDO VIVIR,
       F             G
ESCÚCHAME... NO TE VAYAS...

E-------------------------
B--1---3-4-4>6--4--4>3>1--
G-------------------------
D-------------------------
A-------------------------
E-------------------------

   C       Em      Am
NO LLORES, NO, NO LLORES
  F           Dm       G
Y DEJA DE MENTIRME, NO LLORES.
    C      Em       Am
NO JUEGUES, NO, NO JUEGUES,
  F                  Dm         G
ESTOY CANSADO DE LO MISMO... CONTIGO
F                     G
SABES MUY BIEN QUE TE AMO,
E                   Am
QUE MI VIDA GIRA EN TORNO A TI,
    F                    Dm            G
SIN TI NO SOY IGUAL, SIN TI NO SOY EL MISMO...

=CORO=
C                              Am
DEJA YA DE JUGAR CON MIS SENTIMIENTOS,
F             Dm         G
DEJA YA DE JUGAR CON EL AMOR,
E                          Am
QUE SIN TU AMOR NO PUEDO VIVIR,
       F             G
ESCÚCHAME... NO TE VAYAS...

(*en esta parte la canción sube un tono*)
SOLO: D  -  Bm  -  G  -  Em  -  A  -  F#  -  Bm  -  G  -  A

F#                         Bm
QUE SIN TU AMOR NO PUEDO VIVIR,
       G             A
ESCÚCHAME... NO TE VAYAS...

D                              Bm
DEJA YA DE JUGAR CON MIS SENTIMIENTOS,
G             Em         A
DEJA YA DE JUGAR CON EL AMOR,
F#                         Bm
QUE SIN TU AMOR NO PUEDO VIVIR,
       G             A
ESCÚCHAME... NO TE VAYAS... MI AMOR...

=final=
E--9>11-14---9-11-12-11-12-11--------------------------------
B----------------------------12-----9-10-9-10-12-14-14>16-15-
G------------------------------------------------------------
D------------------------------------------------------------
A------------------------------------------------------------
E------------------------------------------------------------
============================FIN==============================

C = C
D = D
E = E
F = F
G = G
A = A
B = B

# = acorde sostenido
m = acorde menor
(EJEMPLO: G#m = Sol sostenido menor)
En los punteos indicados en la canción el símbolo '>' quiere
decir que debes arrastar el dedo sobre la cuerda (pulsada en
el traste) de un espacio a otro.

'Hola cabros, espero que les guste esta canción ya que es una
de las pocas baladas que tiene este grupo, disfrútenla cabros,
un saludo pal Marco,Joc,Simón,Aarón,Yesleine,Karen,Claudia,
Laura,a los Sweet Revenge a su vocalbajita mi primo Jonathan
y un besito para mi polola  te quiero mucho bebé.'

          En memoria de Andrea Susana Muñoz Alarcón
            (*Abril 20,1989 - Diciembre 10,2005+)
     'Que el Señor te tenga en la gloria hermanita mía'

                'Que el Señor les Bendiga'
Feb.15, 2005                            ...El Último Romántico
======================
Suggest correction
Give kudos to tab author, rate the tab!
1 2 3 4 5
comments
print report bad tab
guest
You may want to rate the tab now too:
select rating
Wanna post a correction for this tab? Suggest correction