Oops, an error
Loading. Please wait.

Las Garras De Tu Amor Tab

32 views 1 this week
no commentswrite comment
1 2 3 4 5
3 more votes to show rating
add to favorites
×
Save as Personal and add changes to this tab that will be seen only by you. Learn more ›
×
You can save this tab as Personal to edit and correct it or add notes. All changes will be seen only by you. Learn more »
save as personal
new!
launch autoscroll
font size
0
reset
how to read this tab
guitar tuner
Autoscroll
slow
fast
+/-
esc
set tempo
stop
=INTRO (Parte 1)=
        Gm                       F                       D
 E----------------------------------------------------------
 B-------------4-3-------------3-1---------3-1---------4-3--
 G--0-0-3-0-3-0-----0-0-3-0-3-0--------2-2---------2-2------
 D----------------------------------3-3-3-3-----3-3-3-3-----
 A----------------------------------------------------------
 E----------------------------------------------------------

                       D
 E--10-10--8--8---6-6--5-5--
 B--11-11--10-10--8-8--7-7--
 G--------------------------
 D--------------------------
 A--------------------------
 E--------------------------

=INTRO (Parte 2)=
    Gm                             Cm
 E--10-8-10-10-11-10-10---------10-13-11-11-11-10-11--
 B-----------------------8-10-11----------------------
 G----------------------------------------------------
 D----------------------------------------------------
 A----------------------------------------------------
 E----------------------------------------------------

    F                          D
 E----------------------------------3-3-3-2------
 B--1----1-------1-----------2-3-2-3--------4-3--
 G---2----2-------2---0-3-2-3--------------------
 D----3-3--3----3--3-----------------------------
 A-----------------------------------------------
 E----------1-1----------------------------------
             '¡Garras...!'           '¡... de amor!'

    Gm                                      Cm
 E--10-10-10-8-10-10-10-11-10-10---------10-13-11-11-10-11-13-11-11-
 B--------------------------------8-10-11---------------------------
 G------------------------------------------------------------------
 D------------------------------------------------------------------
 A------------------------------------------------------------------
 E------------------------------------------------------------------

    F                                          D
 E--8-8-8-8----8-------------------------------15-14-------11-11-10-
 B---------10---10--10--16-16-16-16-15-13-16-16-----16-15-----------
 G-----------10---10------------------------------------------------
 D------------------------------------------------------------------
 A------------------------------------------------------------------
 E------------------------------------------------------------------

=ESTROFA=
       Gm                   Cm
 TE LO JURO, POR DIÓS TE LO JURO,
                F                 D
 QUE SIN TI MI AMOR... NO PUEDO VIVIR...
       Gm                            Cm
 TE LO JURO, QUE ES LA PASIÓN QUE ME QUEMA
                   F                       D
 PERO TAMBIÉN ES VENENO QUE ME ATREVO A PROBAR... POR TI

=CORO=
 Gm                      Cm
 ÁMAME... CON LAS GARRAS DE TU AMOR,
 F                       D
 QUIÉREME, BÉSAME QUE NO PUEDO VIVIR SIN TI...
 Gm                          Cm
 ÁMAME... QUE ESTOY MURIENDO DE DOLOR,
 F                       D
 QUIÉREME, BÉSAME QUE NO PUEDO VIVIR SIN TI...

*Se repite el punteo de la INTRO (Parte 2)*
*Se repite la ESTROFA*
*Se repite el CORO*

=FINAL=
       F              Gm
 E--------------------------------------
 B--1-1-1---1---1---3-3-1-3--3---1-3----
 G-----3-2---2-3-2---------3--2-3-------
 D-----------------------------------3--
 A--------------------------------------
 E--------------------------------------

       F              Gm
 E--------------------------------------
 B--1-1-1---1---1---3-3-1-3--3---1-3----
 G-----3-2---2-3-2---------3--2-3-------
 D-----------------------------------3--
 A--------------------------------------
 E--------------------------------------

          F                        Gm
 E--8-8-6-8-5--8-5-6-8-5---10-10-8-10-6-10-----8-10--
 B----------------------------------------10-11----6-
 G---------------------------------------------------
 D---------------------------------------------------
 A---------------------------------------------------
 E---------------------------------------------------

          F                      D                   Gm
 E--8-8-6-8-5--8-5-6-8-5----------8-7--10-8-7-14----------3--
 B--------------------------10-8-7---10------------------3---
 G------------------------------------------------------3----
 D-----------------------------------------------------5-----
 A----------------------------------------------------5------
 E---------------------------------------------------3-------


============================= F I N ===============================

  Aquí les van algunas indicaciones básicas para tocar la canción:
 _________________________________________________________________
|                             |                                   |
|   C L A V E                 |         C U E R D A S             |
|                             |                                   |
|    C = DO                   |          E-A-D-G-B-E              |
|    D = RE                   |          | | | | | |   ACORDES    |
|    E = MI                   |          3-5-5-3-3-3 = Gm         |
|    F = FA                   |          X-3-5-5-4-3 = Cm         |
|    G = SOL                  |          1-3-3-2-1-1 = F          |
|    A = LA                   |          X-X-0-2-3-2 = D          |
|    B = SI                   |                                   |
|                             |                                   |
|    m = Acorde menor         |                                   |
|_____________________________|___________________________________|
|                                                                 |
|              Ejemplo : Gm es igual a 'SOL menor'                |
|_________________________________________________________________|
|                                                                 |
|      Para que el tema suene la raja te recomiendo ejecutar      |
|  el acorde y los cambios de  acorde en el mismo momento en que  |
|  aparecen,por eso logré que la ubicación de cada acorde sea la  |
| precisa, tal como puse los acordes sobre cada sílaba de estrofa |
|   y sobre cada punteo, así te será más fácil ubicar el acento   |
| musical y además, obtendrás la armonía y melodía similares a la |
|             vesión original de Garras, disfrútala.              |
|_________________________________________________________________|

'Hola soy un baladista aficionado, me llamo Rodrigo y soy chileno,
espero que vacilen harto esta cumbia, pues todos los temas de este
grupo son la raja, además va dedicado a todas las parejas que se
aman apasionadamente al igual que yo con mi guagua que no voy decir
su nombre que termina con 'a' y es virgo... sólo disfruten el tema,
porque para eso estuve hasta las 4 de la mañana sacando los punteos
y por cualquier duda que tengan escríbanme a mi correo electrónico
rodrymicky@ y un saludo pal Marco,Jose,Simón,Aarón,Yoi,
Carolina,Yesleine,Claudia,Laura,Karen,Jesús,al LordCaoz,al Roberto,
al KuroChan,a la Denisse,al Maluto, a mi primo Jonathan, a su grupo
los Sweet Revenge, a la Jocelyn y un besito rico para mi guagua...
te quiero mucho bebé.'

            +EN MEMORIA DE ANDREA SUSANA MUÑOZ ALARCÓN+
               (*Abril 20,1989 - Diciembre 10,2004+)
         'Que el Señor te tenga en su gloria hermanita mía'

                    'Que el Señor les Bendiga'
Marzo 11, 2005                               ...El último romántico
=========================
Suggest correction
Give kudos to tab author, rate the tab!
1 2 3 4 5
comments
print report bad tab
guest
Wanna post a correction for this tab? Suggest correction