Oops, an error
Loading. Please wait.

Loco De Amor Tab

version 1
version 1

Whole song

64 views 1 this week
no commentswrite comment
1 2 3 4 5
3 more votes to show rating
add to favorites
×
Save as Personal and add changes to this tab that will be seen only by you. Learn more ›
×
You can save this tab as Personal to edit and correct it or add notes. All changes will be seen only by you. Learn more »
save as personal
new!
launch autoscroll
font size
0
reset
how to read this tab
guitar tuner
Autoscroll
slow
fast
+/-
esc
set tempo
stop
Garras de amor- Loco de amor


  Intro Teclado

     E                      C#m
 e|-------4--------4----|------------|
 b|-5--7-----7--5-----7-|-5--4--4--5-|
 g|---------------------|------------|
 d|---------------------|------------|
 a|---------------------|------------|
 E|---------------------|------------|

     F#m                         B
 e|------------------------|------------|
 b|-------4--------4-------|-------4----|
 g|-4--6-----6--4-----6--4-|-6--6-----4-|
 d|------------------------|------------|
 a|------------------------|------------|
 E|------------------------|------------|


   Guitarra

     E                                 C#m
 e|----------4--5--4--5--4----------|------|
 b|----5--7-----------------7--5--7-|------|
 g|-4-------------------------------|-/6v--|
 d|---------------------------------|------|
 a|---------------------------------|------|
 E|---------------------------------|------|

     F#m                                  B
 e|-------4--5--5--7--5--7--4----------|-----|
 b|----5-----------------------7--5----|--4--|
 g|-6--------------------------------6-|-----|
 d|------------------------------------|-----|
 a|------------------------------------|-----|
 E|------------------------------------|-----|

                       E  C#m F#m  B   A
 e|-------5--4--|   e|-7-|-4-|-5-|-7-|-5-|
 b|-5--7--------|   b|-9-|-5-|-7-|-7-|-5-|
 g|-------------|   g|-9-|-6-|-6-|-8-|-7-|
 d|-------------|   d|-x-|-x-|-x-|-x-|-x-|
 a|-------------|   a|-x-|-x-|-x-|-x-|-x-|
 E|-------------|   E|-x-|-x-|-x-|-x-|-x-|

 x:no se tocan


    RIFF 1                RIFF 2
 e|--------4-----4-|  e|---------4---5-4-|
 b|---5-7----7-5---|  b|---5-7-5---7-----|
 g|-4--------------|  g|-4---------------|
 d|----------------|  d|-----------------|
 a|----------------|  a|-----------------|
 E|----------------|  E|-----------------|

    RIFF 3 Teclado
 e|-4(x3)-----------|
 b|-------7-5-7-5---|
 g|---------------6-|
 d|-----------------|
 a|-----------------|
 E|-----------------|

    RIFF 4
 e|-12----12----14-14----12-|-12----12----14--11-|
 b|----14----14-------14----|----14----14--------|
 g|-------------------------|--------------------|
 d|-------------------------|--------------------|
 a|-------------------------|--------------------|
 E|-------------------------|--------------------|


  LETRA
                E                          C#m(RIFF 1)
  Aunque te olvides de este amor y de lo que paso
                F#m        A                B(RIFF 2)
  de nuestra historia de amor y de tanta pasión
            E (RIFF 3)             C#m
  yo nunca te olvidare porque siempre te ame
           F#m         A           B
  y lo que aprendi de ti lo conservé dentro de mi
           F#m(RIFF 4)C#m         F#m        B
  y que te quiero decir, que no puedo sin ti


  CORO

               E             C#m
  Y que estoy loco de amor, loco por vos,
       F#m-A             B
  te quiero, mi niña te quiero...
               E              C#m
  Y que estoy loco de amor, loco por vos,
       F#m-A             B
  te quiero, mi niña te quiero...


    Ahi esta, el resto es lo mismo, ahora me deben
  una, si quieren algun tema de este tipo escribanme
  y si me lo sé se los escribiré...

  para todos los musicos de corazón de mi, mario
  abarzua, y para ti mi niñita que me has cautivado,
  te amo y te amare por todos los dias de mi vida...
Suggest correction
Give kudos to tab author, rate the tab!
1 2 3 4 5
comments
print report bad tab
guest
Wanna post a correction for this tab? Suggest correction