Oops, an error
Loading. Please wait.

Loco De Amor Tab

version 2
version 2

Whole song

39 views 1 this week
no commentswrite comment
1 2 3 4 5
3 more votes to show rating
add to favorites
×
Save as Personal and add changes to this tab that will be seen only by you. Learn more ›
×
You can save this tab as Personal to edit and correct it or add notes. All changes will be seen only by you. Learn more »
save as personal
new!
launch autoscroll
font size
0
reset
how to read this tab
guitar tuner
Autoscroll
slow
fast
+/-
esc
set tempo
stop
___________________________________________________
|                                                   |
|                   L E E  E S T O                  |
|___________________________________________________|
|                                                   |
| Antes de copiar esta transcripción a un archivo   |
| de texto, debes seleccionar la fuente tipográfica |
|  COURIER NEW  o  LUCIDA CONSOLE , así no se te    |
| moverán los acordes ni los punteos de su posición |
| original y podrás tocar la canción correctamente. |
|___________________________________________________|


   *===========================================*
   *========  L O C O   D E   A M O R  ========*
   *=======  G A R R A S  D E  A M O R  =======*
   *==============(Tono Original)==============*
   *==== (Transcripción: Rodrigo González) ====*
   *===========================================*

=INTRO= (Parte 1)
     FA        REm        LA#         DO
E-----5---5------------------------------------
B--6-8-8-6---6-6-5-5-6-----3-----3----3-5------
G-----------------------3-5-5-3-5-5-3----5-----
D----------------------------------------------
A----------------------------------------------
E----------------------------------------------

       FA                 REm
E---13-15-17-15-13-17--13-13-12-12-13--
B--------------------------------------
G--------------------------------------
D--------------------------------------
A--------------------------------------
E--------------------------------------

      LA#                      DO
E--------------------------------12----
B--11-13-15-13-11-13-15-13-11--15--13--
G--------------------------------------
D--------------------------------------
A--------------------------------------
E---------------------- ¡goza y baila!

=INTRO= (Parte 2)
       FA           REm      LA#          DO
E------5-6-5---------------5-6-6-8-6-5-5--------10-8--
B---6-8-----8-6-8-6-------8-----------8-8-5----8------
G--5---------------5-7---7---------------7----9-------
D-----------------------------------------------------
A-----------------------------------------------------
E-----------------------------------------------------
          ¡con Garras... de amor!

=Estrofa=
             FA                         REm
 AUNQUE TE OLVIDES DE ESTE AMOR Y DE LO QUE PASÓ,
               LA#                   DO         DO7
 DE NUESTRA HISTORIA DE AMOR Y DE TANTA PASIÓN,
          FA                     REm
 YO NUNCA TE OLVIDARÉ PORQUE SIEMPRE TE AMÉ
          LA#                    DO
 Y LO QUE APRENDÍ DE TI LO CONSERVÉ DENTRO DE MÍ...
      SOLm     REm7          LA#       DO    DO7
 Y TE QUIERO DECIR... QUE NO PUEDO SIN TI...

=CORO=
             FA            REm
 Y QUE ESTOY LOCO DE AMOR, LOCO POR VOS,
    LA#                DO
 TE QUIERO, MI NIÑA TE QUIERO...
             FA            REm
 Y QUE ESTOY LOCO DE AMOR, LOCO POR VOS,
    LA#                DO
 TE QUIERO, MI NIÑA TE QUIERO...

 */Se toca =INTRO= (Parte 1)*

=Estrofa=
             FA                         REm
 AUNQUE TE OLVIDES DE ESTE AMOR Y DE TANTA PASIÓN,
               LA#                   DO        DO7
 DE NUESTRA HISTORIA DE AMOR Y DE LO QUE PASÓ,
          FA                     REm
 YO NUNCA TE OLVIDARÉ PORQUE SIEMPRE TE AMÉ
          LA#                    DO
 Y LO QUE APRENDÍ DE TI LO CONSERVÉ DENTRO DE MÍ...
      SOLm     REm7          LA#       DO    DO7
 Y TE QUIERO DECIR... QUE NO PUEDO SIN TI...

=CORO=
             FA            REm
 Y QUE ESTOY LOCO DE AMOR, LOCO POR VOS,
    LA#                DO
 TE QUIERO, MI NIÑA TE QUIERO...
             FA            REm
 Y QUE ESTOY LOCO DE AMOR, LOCO POR VOS,
    LA#                DO
 TE QUIERO, MI NIÑA TE QUIERO...

=SOLO= (Punteo en Guitarra)
    FA                REm
E----------------------------
B----------------------------
G---2-0-0-2--2-0-0-2---------
D------3--------3-----2-3-0--
A--3--------3----------------
E----------------------------

        A#                      DO
E-------------------------------------
B-------------------------------------
G-------3-2-0-2-3--3-2-0-2-3-----0----
D--0-0-0----------0-----------3-3-2---
A-------------------------------------
E-------------------------------------

    FA                 REm
E---5-3-3-5---5-3-3-5--------
B------6---------6-----5-6---
G--5---------5------------7--
D----------------------------
A----------------------------
E----------------------------

        A#                   DO
E-------6-5-5-6---6-5-5-6------------
B----------8---------8-----6-6-8-5---
G--7-7-7---------7-------------------
D------------------------------------
A------------------------------------
E------------------------------------

=CORO=
             FA            REm
 Y QUE ESTOY LOCO DE AMOR, LOCO POR VOS,
    LA#                DO
 TE QUIERO, MI NIÑA TE QUIERO...
             FA            REm
 Y QUE ESTOY LOCO DE AMOR, LOCO POR VOS,
    LA#                DO                FA
 TE QUIERO, MI NIÑA TE QUIEROOOOOOOOO OUOOOH...

 */Se toca el =SOLO=*

=FINAl=
 DO         FA
 LOCO DE AAAMOOOOOOR...

 ======================= FIN =====================
  _______________________________________________
 |                                               |
 | Aquí te van algunas indicaciones básicas para |
 | tocar la canción:                             |
 |_______________________________________________|
 |                                               |
 | Para que el tema suene la raja te recomiendo  |
 | ejecutar el acorde y los cambios de  acorde   |
 | en el mismo momento en que aparecen,por eso   |
 | logré que la ubicación de cada acorde sea la  |
 | precisa, tal como puse los acordes sobre cada |
 | sílaba de verso y sobre cada punteo, así te   |
 | será más fácil ubicar el acento musical y     |
 | además, obtendrás melodía y armonía similares |
 | A LA versión original de los Garras De Amor,  |
 | disfrútala.                                   |
 |_______________________________________________|
  _______________________
 |                       |
 |       C L A V E       |   CUERDAS de la GUITARRA:
 | Universal - Americana |   E   A   D   G   B   E
 |                       |   |   |   |   |   |   |
 | DO  =============== C |   MI  LA  RE  SOL SI  MI
 | RE  =============== D | Grave                Agudo
 | MI  =============== E |
 | FA  =============== F |
 | Sol =============== G |
 | LA  =============== A |
 | SI  =============== B |
 |_______________________|

 (Acorde)    (Cuerdas)
    |       E A D G B E  Los números corresponden al
    |       | | | | | |  traste de la guitarra donde
    |       | | | | | |  se pulsa la cuerda señalada,
    |       | | | | | |  la letra'X'significa que no
    |       | | | | | |  se pulsa la cuerda indicada.
    |       | | | | | |
    Do   :  X 3 2 0 1 0  ( Do Mayor   )
    Do7  :  X 3 2 3 1 0  ( Do Mayor 7 )
    Rem  :  X X 0 2 3 1  ( Re menor   )
    Rem7 :  X X 0 2 1 1  ( Re menor 7 )
    Fa   :  1 3 3 2 1 1  ( Fa Mayor   )
    Solm :  3 5 5 3 3 3  ( Sol menor  )
    La#  :  X 1 3 3 3 1  ( La Mayor Sostenido )
  ____________________________________________________
 |                                                    |
 | Equivalencia de notas sostenidas con notas bemoles |
 |____________________________________________________|
 |                                                    |
 |  DO# = REb  <----> ( Do  sostenido  =  Re  bemol ) |
 |  RE# = MIb  <----> ( Re  sostenido  =  Mi  bemol ) |
 |  FA# = SOLb <----> ( Fa  sostenido  =  Sol bemol ) |
 | SOL# = LAb  <----> ( Sol sostenido  =  La  bemol ) |
 |  LA# = SIb  <----> ( La  sostenido  =  Re  bemol ) |
 |____________________________________________________|

 Hola me llamo Rodrigo, soy chileno y soy un baladista
aficionado, espero que les guste esta transcripción de
este tema por que aquí van los acordes corregidos junto
con los punteos que hace tiempo quería mandárselos...
 Esta cumbia va dedicada a todas las 'chicas solteras'
que 'gozan y bailan' con Garras de Amor...    Cualquier
pregunta, mi correo es  rodrymicky@ Un
saludo para Marco, Joc, Simón, Yoi, Maluto, Jonathan,
Daniela, Colocolín; para el norte de Chile que siempre
me preguntan por los integrantes del grupo, un besito
para mi novia Karen, y un abrazo para Diego Rodríguez,
el vocal de Garras, a quien admiro mucho artísticamente

                  ¡¡¡AGUANTE GARRAS!!!


+EN MEMORIA DE MI HERMANITA ANDREA SUSANA MUÑOZ ALARCÓN+
         (*Abril 20,1989 - Diciembre 10,2004+)
   Que el Señor te tenga en su gloria hermanita mía

                 Que el Señor les Bendiga

OCTUBRE, 2005                     ...El último romántico
====================
Suggest correction
Give kudos to tab author, rate the tab!
1 2 3 4 5
comments
print report bad tab
guest
Wanna post a correction for this tab? Suggest correction