Oops, an error
Loading. Please wait.

Quiero Bailar Cumbia Chords

27 views 1 this week
no commentswrite comment
1 2 3 4 5
3 more votes to show rating
add to favorites
launch autoscroll
font size
0
reset
transpose
0
reset
display chords
guitar tuner
Autoscroll
slow
fast
+/-
esc
set tempo
stop
Help us to improve Ultimate-Guitar.com Take our survey!
×
=INTRO=
         Bm             A       Bm        Bm             A       Bm
E--7-7-7-10-9-7--10-10-9---7----7 --7-7-7-10-9-7--10-10-9---7----7-
B-7---7---------7-------10--7-10- -7---7---------7-------10--7-10--
G-------------------------------- ---------------------------------
D-------------------------------- ---------------------------------
A-------------------------------- ---------------------------------
E-------------------------------- ---------------------------------

   A                   Bm
E--------------------------------------------
B--------------------------------------------
G--2-2-------2------2--4-4-------4--------4--
D-----2-2-2-4-4--2-2------4-4-2-4-4--4-5-4---
A--------4--------4----------4---------------
E--------------------------------------------
 '¡Garras... de amor!'              '¡muévete... !'

   A                   Bm
E--------------------------------------------
B--------------------------------------------
G--2-2-------2------2--4-4-------4--------4--
D-----2-2-2-4-4--2-2------4-4-2-4-4--4-5-4---
A--------4--------4----------4---------------
E--------------------------------------------
                                   '¡así... así... !'

   A                   Bm
E--5-5-------5-----5---7-7-------7-------7---
B-----5-5-5-7-7-5-5-------7-7-5-7-7-7-8-7----
G--------6-------6-----------6---------------
D--------------------------------------------
A--------------------------------------------
E--------------------------------------------

   A                   Bm
E--5-5-------5-----5----------------------9-10--14--
B-----5-5-5-7-7-5-5------------------10-12----------
G--------6-------6------------9-10-12---------------
D----------------------9-10-12----------------------
A---------------------------------------------------
E---------------------------------------------------

=Estrofa 1.1=
     Bm                G
YO ESPERO... TODA LA SEMANA
                    A
PARA SALIR CON MIS AMIGOS,
            Bm
Y QUIERO BAILAR...

=Estrofa 1.2=
   Bm                              G
YO TOMO POR ESE AMOR QUE ME HA ENGAÑADO,
                         A
POR ESE AMOR QUE ME HA DEJADO,
               Bm
QUE NUNCA VOLVERÁ...

=PRECORO=
        A             Bm
E------------------ ---------------
B-------5-5-5-7-5-- --7-7-5-7-8-7--
G----------7------- ---------------
D--7-7-7---------7- -7-------------
A------------------ ---------------
E------------------ ---------------

        A              Bm
E------------------ ---10-10-9-7---10-10-9-7--
B-------5-5-5-7-5-- --10----------------------
G----------7------- --------------------------
D--7-7-7---------7- --------------------------
A------------------ --------------------------
E------------------ --------------------------
     '¡... y dale dale Garras!'

=CORO=
         A
POR ESO QUIERO BAILAR CUMBIA
    Bm
Y TOMAR PARA OLVIDAR,
         A
POR ESO QUIERO BAILAR CUMBIA,
       G        A                Bm
PORQUE TÚ... MUJER ME HAS PAGADO MAL...

         A
POR ESO QUIERO BAILAR CUMBIA
    Bm
Y TOMAR PARA OLVIDAR,
         A
POR ESO QUIERO BAILAR CUMBIA,
       G        A                Bm
PORQUE TÚ... MUJER ME HAS PAGADO MAL...


*Se repite el punteo de la INTRO*


=Estrofa 2.1=
     Bm                G
YO ESPERO... TODA LA SEMANA
                    A
PARA SALIR CON MIS AMIGOS,
            Bm
Y QUIERO BAILAR...

=Estrofa 2.2=
   Bm                              G
YO TOMO POR ESE AMOR QUE ME HA ENGAÑADO,
                         A
POR ESE AMOR QUE ME HA DEJADO,
               Bm
QUE NUNCA VOLVERÁ...


*Se repite el punteo del PRECORO*


=CORO=
         A
POR ESO QUIERO BAILAR CUMBIA
    Bm
Y TOMAR PARA OLVIDAR,
         A
POR ESO QUIERO BAILAR CUMBIA,
       G        A                Bm
PORQUE TÚ... MUJER ME HAS PAGADO MAL...

         A
POR ESO QUIERO BAILAR CUMBIA
    Bm
Y TOMAR PARA OLVIDAR,
         A
POR ESO QUIERO BAILAR CUMBIA,
       G        A                Bm
PORQUE TÚ... MUJER ME HAS PAGADO MAL...

=FINAL=
        A             Bm
E------------------ ---------------
B-------5-5-5-7-5-- --7-7-5-7-8-7--
G----------7------- ---------------
D--7-7-7---------7- -7-------------
A------------------ ---------------
E------------------ ---------------
                'si tomo para olvidar...'

        A              Bm
E------------------ ---10-10-9-7---10-10-9-7---10-10-9-7--
B-------5-5-5-7-5-- --10----------------------------------
G----------7------- --------------------------------------
D--7-7-7---------7- --------------------------------------
A------------------ --------------------------------------
E------------------ --------------------------------------
 'porque te quiero mujer...'

        A             Bm
E------------------ ---------------
B-------5-5-5-7-5-- --7-7-5-7-8-7--
G----------7------- ---------------
D--7-7-7---------7- -7-------------
A------------------ ---------------
E------------------ ---------------

        A              Bm
E------------------ ---10-10-9-7---10-10-9-7--7-7---
B-------5-5-5-7-5-- --10----------------------7-7---
G----------7------- --------------------------7-7---
D--7-7-7---------7- --------------------------9-9---
A------------------ --------------------------9-9---
E------------------ --------------------------7-7---

----------------------------- F I N ------------------------------

 Aquí les van algunas indicaciones básicas para tocar la canción:
 _________________________________________________________________
|                             |                                   |
|   C L A V E                 |         C U E R D A S             |
|                             |                                   |
|    C = C                   |          E-A-D-G-B-E              |
|    D = D                   |          | | | | | |   ACORDES    |
|    E = E                   |          X-2-4-4-3-2 = Bm         |
|    F = F                   |          3-2-0-0-3-3 = G          |
|    G = G                  |          X-0-2-2-2-0 = A          |
|    A = A                   |                                   |
|    B = B                   |  Ejemplos:  Bm = B menor         |
|                             |              G = G mayor        |
|    m = Acorde menor         |              A = LA mayor         |
|                             |                                   |
|_____________________________|___________________________________|
|                                                                 |
|      Para que el tema suene la raja te recomiendo ejecutar      |
|  el acorde y los cambios de  acorde en el mismo momento en que  |
|  aparecen,por eso logré que la ubicación de cada acorde sea la  |
|  precisa, tal como se encuentran sobre cada verso y sobre cada  |
|  punteo, así, te será menos difícil ubicar el acento musical y  |
| además, obtendrás la armonía y melodía similares a la vesión de |
|                      Garras, disfrútala.                        |
|_________________________________________________________________|

'Hola soy un baladista aficionado, me llamo Rodrigo y soy chileno,
espero que vacilen harto esta cumbia, pues todos los temas de este
grupo son la raja, además va dedicado a todas las malas mujeres que
nos hacen daño a nosotros lo pobres hombres. No se corten las venas
cabros, sólo disfrútenla, pa' eso estuve caleta de rato sacando los
punteos y por cualquier duda que tengan escríbanme a la dirección
rodrymicky@ y un saludo pal Marco,Joc,Simón,Aarón,Yoi,
Carolina,Yesleine,Claudia,Laura,Karen,Jesús,al LordCaoz,al Roberto,
al KuroChan,a la Denisse,al Maluto, a mi primo Jonathan, a su grupo
los Sewet Revenge, a la Jocelyn y un besito rico para mi guagua...
te quiero mucho bebé.'

            +EN MEMORIA DE ANDREA SUSANA MUÑOZ ALARCÓN+
               (*Abril 20,1989 - Diciembre 10,2004+)
         'Que el Señor te tenga en su gloria hermanita mía'

                    'Que el Señor les Bendiga'
Marzo 10, 2005                               ...El último romántico
=========================
Suggest correction
Give kudos to tab author, rate the tab!
1 2 3 4 5
comments
print report bad tab
guest
You may want to rate the tab now too:
select rating
Wanna post a correction for this tab? Suggest correction