Oops, an error
Loading. Please wait.

Insignia Patria Tab

34 views 1 this week
no commentswrite comment
1 2 3 4 5
3 more votes to show rating
add to favorites
launch autoscroll
font size
0
reset
how to read this tab
guitar tuner
×
Best way to learn
"Insignia Patria"
Autoscroll
slow
fast
+/-
esc
set tempo
stop
INTRO
e|---------------------------------------------------------|
B|---------------------------------------------------------|
G|---------------------------------------------------------|
D|-777...--------------------------------------------------|
A|-555...---X-X-3-X---X-X-3-X---X-X-3-X---X-X-3-X----------|
E|----------X-X-1-X---X-X-1-X---X-X-1-X---X-X-1-X----------|

RIFF 1
e|---------------------------------------------------------|
B|---------------------------------------------------------|
G|---------------------------------------------------------|
D|---------------------------------------------------------|
A|--X-X-3-X---X-X-3-X---X-X-3-X---X-X-3-X------------------|
E|--X-X-1-X---X-X-1-X---X-X-1-X---X-X-1-X------------------|

RIFF 2
e|---------------------------------------------------------|
B|---------------------------------------------------------|
G|---------------------------------------------------------|
D|---------------------------------------------------------|
A|--X-X-3-X-3-X-X-3-X-3-X-X-3-X-3-X-X-3-X-3----------------|
E|--X-X-1-X-1-X-X-1-X-1-X-X-1-X-1-X-X-1-X-1----------------|

RIFF 3
e|---------------------------------------------------------|
B|---------------------------------------------------------|
G|---------------------------------------------------------|
D|---------------------------------------------------------|
A|--X-X-3-2-3-X-X-3-3-2------------------------------------|
E|--X-X-------X-X-1-1-0------------------------------------|

RIFF 4
e|-----------------|
B|--17~ ~ ~ -------|
G|-----------------|
D|-----------------|
A|-----------------|
E|-----------------|


INTRO

RIFF 2 x2
Cuando extraes tu suelo y tu sangre
Cuando sientas la tristeza del indio
No te olvides de tu raiz
Las espaldas mojadas contigo

RIFF 1

RIFF 2 x2
Olvidado en un lejano pais
Con derechos todos cancelados
Un recuerdo un grito interior
En casa estan esperando

RIFF 4
Tierra madre no seas madrastra
Tengo hamgre insignia patria
Tierra madre no seas madrastra
Exiliados insignia patria

RIFF 3 x4
RIFF 1

SI TE GUSTA LA BUENA MUSICA COMUNICATE
SOY DE MERIDA BUSCO CON QUIEN TOCAR UN BUEN SKA

ortaska@
Suggest correction
Give kudos to tab author, rate the tab!
1 2 3 4 5
comments
print report bad tab
guest
You may want to rate the tab now too:
select rating
Wanna post a correction for this tab? Suggest correction