Oops, an error
Loading. Please wait.

Locos Tab

41 views 1 this week
no commentswrite comment
1 2 3 4 5
3 more votes to show rating
add to favorites
launch autoscroll
font size
0
reset
how to read this tab
guitar tuner
Autoscroll
slow
fast
+/-
esc
set tempo
stop
Help us to improve Ultimate-Guitar.com Take our survey!
×
(*) - palm muting

Riff 1
e|---------------------------------------------------------|
B|---------------------------------------------------------|
G|---------------------------------------------------------|
D|-5-5-5----------------5-5-5-------2----------------------|
A|-5-5-5----------------5-5-5-------2----------------------|
E|-3-3-3-4-3-1-0-1-5-3--3-3-3-4-3-1-0----------------------|
     * *                 * *

Riff 2
e|---------------------------------------------------------|
B|---------------------------------------------------------|
G|---------------------------------------------------------|
D|-5-5-5-6-5-3-2-3-5-3--5-5-5-6-5-3-2----------------------|
A|-5-5-5-6-5-3-2-3-5-3--5-5-5-6-5-3-2----------------------|
E|-3-3-3-4-3-1-0-1-3-1--3-3-3-4-3-1-0----------------------|
     * * * * * * * *      * * * * *

Riff 3
e|---------------------------------------------------------|
B|---------------------------------------------------------|
G|---------------------------------------------------------|
D|-7-7-----------------------------------------------------|
A|-5-5-----------------------------------------------------|
E|---------------------------------------------------------|

Riff 4
e|---------------------------------------------------------|
B|---------------------------------------------------------|
G|---------------------------------------------------------|
D|-7-7-7-----7-7-7-----------------------------------------|
A|-7-7-7-----7-7-7-----------------------------------------|
E|-5-5-5-5-6-5-5-5-6-5-------------------------------------|
     * *       * *

Riff 1 x3
Riff 2 x4
Riff 3 x8
Riff 4 x8
solo
Riff 3 x8
Riff 4 x8
Riff 1 x3
Riff 2 x4

del riff4 no estoy seguro que sea asi
------------------
ortaska@
Suggest correction
Give kudos to tab author, rate the tab!
1 2 3 4 5
comments
print report bad tab
guest
You may want to rate the tab now too:
select rating
Wanna post a correction for this tab? Suggest correction