Oops, an error
Loading. Please wait.
We have Chord Pro version of Friends In Low Places.
It's the closest thing you can get to the original song and it has interactive parts. Check out the tab »
×
35,591 views 30 this week
5 commentsread comments
1 2 3 4 5
x 12
add to favorites
×
Save as Personal and add changes to this tab that will be seen only by you. Learn more ›
×
You can save this tab as Personal to edit and correct it or add notes. All changes will be seen only by you. Learn more »
launch autoscroll
font size
0
reset
how to read this tab
guitar tuner
backing track
0:00
0:00
edit
Autoscroll
slow
fast
+/-
esc
set tempo
stop
----------------------------------------------------------------------------
                 Garth Brooks - Friends in Low Places
----------------------------------------------------------------------------
Tabbed by: John Morgan

Tuning: Standard, but Capo on 2nd Fret

e|-----------------------------------------------------3--------------0h2---|
B|---------------0--------------3----------------1----------------3---------|
G|-----------0---------------4---------------2-----------------2------------|
D|-------0-------------------------------2-----------------0----------------|
A|-----------------------2-----------0--------------------------------------|
E|----3--------------4------------------------------------------------------|

e|-------------------3--------------4---|
B|---------------0--------------3-------|
G|-----------0---------------4----------|
D|-------0------------------------------|
A|-----------------------2--------------|
E|----3---------------4-----------------|


Please rate tab.


This tab is truly 100% correct.
Suggest correction
Creating personal tab
Creating personal tab
You can edit any tab online and save it as your Personal.

You can edit, replace or remove any tab part or add personal notes – all changes will be seen only by you.

Personal tabs can be accessed anytime from any device, even offline.
Learn more »
comments
print report bad tab
5 comments total. Showing first comments.
0 reply
poochydapimp 10 May 01, 2006 03:50 PM

BEST TAB OF THIS YET>>>> THE REST SUCK.

0 reply
poochydapimp 10 May 01, 2006 03:51 PM

Now I just need the right verse chords... lol

0 reply
big_d 244 Jun 22, 2006 05:44 AM

dude your skipping strings you have----------------------
----3------------------
---4-------------------
----------------------
--3--------------------
-4---------------------
it sould be--------------
---------------3---------
--------------4---------- good luck dude
-------------3----------
-----------------------
------------4------------

guest
You may want to rate the tab now too:
select rating
Wanna post a correction for this tab? Suggest correction