Oops, an error
Loading. Please wait.
We have Chord Pro version of Friends In Low Places.
It's the closest thing you can get to the original song and it has interactive parts. Check out the tab »
×
1,018 views 21 this week
2 commentsread comments
1 2 3 4 5
x 3
add to favorites
×
Save as Personal and add changes to this tab that will be seen only by you. Learn more ›
×
You can save this tab as Personal to edit and correct it or add notes. All changes will be seen only by you. Learn more »
launch autoscroll
font size
0
reset
how to read this tab
guitar tuner
backing track
0:00
0:00
edit
Autoscroll
slow
fast
+/-
esc
set tempo
stop
GARTH BROOKS - FRIENDS IN LOW PLACES

e|-----------------------------0---------------4------------2h4---|
B|------------2-------------2---------------3------------2--------|
G|---------2-------------0---------------4------------4-----------|
D|------2-------------2---------------4------------2--------------|
A|---0-------------1---------------2------------------------------|
E|----------------------------------------------------------------|

e|-------------------------------------------0-------------|
B|------------2---------------------------2-----2----------|
G|---------2-----2--------------------0------------0-------|
D|------2-----------2-------------2-------------------2----|
A|---0-----------------0-----1-----------------------------|
E|---------------------------------------------------------|
BLAME IT ALL ON MY ROOTS    I SHOWED UP IN BOOTS

e|------------------------------------------------------------|
B|------------3--------------------------3--------------------|
G|--------4------4--------------------4-----4-----------------|
D|-----4------------4-------------4------------4--------------|
A|--2------------------2-------2------------------2-----------|
E|-----------------------------------------------------------|
AND RUINED YOUR BLACK TIE AFFAIR

e|--------------------------------0----------------------4-----------------2h1--|
B|------------2----------------2-----2----------------3-----------------2-------|
G|---------2-----2----------0----------------------4-----------------4----------|
D|------2----------------2----------------------4-----------------2-------------|
A|---0----------------1----------------------2----------------------------------|
E|------------------------------------------------------------------------------|
THE LAST ONE TO KNOW  THE LAST ONE TO SHOW I WAS THE LAST ONE YOU THOUGHT YOU’D
                                                                      SEE THERE

e|-----------------------------------------------0-------------|
B|------------2-------------------------------2-----2----------|
G|---------2-----2------------------------0------------0-------|
D|------2-----------2-----------------2-------------------2----|
A|---0-----------------0----------1----------------------------|
E|-------------------------------------------------------------|
AND I SAW A SURPRISE      AND THE FEAR IN HIS EYES

e|------------------------------------------------------------|
B|------------3--------------------------------0--------------|
G|--------4------4--------------------------1-----1-----------|
D|-----4------------4-------------------2------------2--------|
A|--2------------------2------------2-------------------2-----|
E|------------------------------0-----------------------------|
WHEN I TOOK HIS GLASS         OF CHAMPAGNE

    E
AND I TOASTED YOU SAID HONEY WE MAY BE THROUGH BUT YOU’LL NEVER HEAR ME COMPLAIN

      A
CAUSE I’VE GOT FRIENDS IN LOW PLACES WHERE THE WHISKEY DROWNS AND THE BEER
          Bm                  E
CHASES MY BLUES AWAY AND I’LL BE OK

     A
YEAH I’M NOT BIG ON SOCIAL GRACES THINK I’LL SLIP ON DOWN TO THE OASIS
   Bm             E        A
OH I’VE GOT FRIENDS IN LOW PLACES

SOLO
e|---------------------------------------------------------------------------------|
B|--5--5b-5b-5b-5br--2-----------------------------------------------------5/7--5--|
G|----------------------4--4b--4br----------------------4b-4b-4br---2--------------|
D|-----------------------------------------------2--2------------------4-----------|
A|---------------------------------9\--0---2/4-------------------------------------|
E|---------------------------------------------------------------------------------|

 A    Bm    E   A   E    A - these are the chords played over the solo

e|------------------------------------------------------|
B|------------------------------------------------------|
G|--4br--2--4/6\4---------------------------------------|
D|------------------4br--2------------------2-----------|
A|--------------------------2br--0--0--2/4-----4/2--0---|
E|------------------------------------------------------|


VERSE 2
e|-----------------------------------------------0-------------|
B|------------2-------------------------------2-----2----------|
G|---------2-----2-------------------------0-----------0-------|
D|------2-----------2--------------------2----------------2----|
A|---0-----------------0--------------1------------------------|
E|-------------------------------------------------------------|
WELL I GUESS I WAS WRONG      I JUST DON’T BELONG

e|------------------------------------------------------------|
B|------------3--------------------------------3--------------|
G|--------4------4--------------------------4-----4-----------|
D|-----4------------4-------------------4------------4--------|
A|--2------------------2------------2-------------------2-----|
E|------------------------------------------------------------|
BUT THEN I’VE BEEN THERE           BEFORE

E                                                A
EVERYTHINGS ALRIGHT  I’LL JUST SAY GOODNIGHT AND SHOW MYSELF TO THE DO-O-O-R

e|--------------------------------------------0-------------|
B|------------2----------------------------2-----2----------|
G|---------2-----2---------------------0------------0-------|
D|------2-----------2--------------2-------------------2----|
A|---0-----------------0-------1----------------------------|
E|----------------------------------------------------------|
    BABY I DIDN’T MEAN      TO CAUSE A BIG SCENE

e|------------------------------------------------------------|
B|------------3--------------------------------0--------------|
G|--------4------4--------------------------1-----------------|
D|-----4------------4-------------------2---------------------|
A|--2------------------2------------2-------------------------|
E|------------------------------0-----------------------------|
JUST  GIVE ME AN              HOUR AND THEN

E
WELL I’LL BE AS HIGH AS THAT IVORY TOWER THAT YOU’LL NEVER KNOW

      A
CAUSE I’VE GOT FRIENDS IN LOW PLACES WHERE THE WHISKEY DROWNS AND THE BEER
          Bm                  E
CHASES MY BLUES AWAY AND I’LL BE OK

     A
YEAH I’M NOT BIG ON SOCIAL GRACES THINK I’LL SLIP ON DOWN TO THE OASIS
   Bm             E        A
OH I’VE GOT FRIENDS IN LOW PLACES

     A
YEAH I’VE GOT FRIENDS IN LOW PLACES WHERE THE WHISKEY DROWNS AND THE BEER
          Bm                  E  
CHASES MY BLUES AWAY AND I’LL BE OK

     A
YEAH I’M NOT BIG ON SOCIAL GRACES THINK I’LL SLIP ON DOWN TO THE OASIS
   Bm             E        A
OH I’VE GOT FRIENDS IN LOW PLACES

     A                                  
YEAH I’VE GOT FRIENDS IN LOW PLACES WHERE THE WHISKEY DROWNS AND THE BEER
          Bm                  E
CHASES MY BLUES AWAY AND I’LL BE OK

     A                         
YEAH I’M NOT BIG ON SOCIAL GRACES THINK I’LL SLIP ON DOWN TO THE OASIS
   Bm             E        A
OH I’VE GOT FRIENDS IN LOW PLACES

            
            
Suggest correction
Creating personal tab
Creating personal tab
You can edit any tab online and save it as your Personal.

You can edit, replace or remove any tab part or add personal notes – all changes will be seen only by you.

Personal tabs can be accessed anytime from any device, even offline.
Learn more »
Give kudos to tab author, rate the tab!
1 2 3 4 5
comments
print report bad tab
2 comments total.
0 reply
FL_Bob2002 578 Jul 22, 2016 08:26 AM

Thanks for the chords, but the solo didnt sound right with the song, but I managed to play something close to it

0 reply
bobeldridge 10 Apr 13, 2017 02:22 PM

👍

guest
You may want to rate the tab now too:
select rating
Wanna post a correction for this tab? Suggest correction