Oops, an error
Loading. Please wait.

Learning To Live Again chords

version 1
version 1

Whole song

37,168 views 84 this week
3 commentsread comments
1 2 3 4 5
x 10
add to favorites
×
Save as Personal and add changes to this tab that will be seen only by you. Learn more ›
×
You can save this tab as Personal to edit and correct it or add notes. All changes will be seen only by you. Learn more »
launch autoscroll
font size
0
reset
transpose
0
reset
simplify chords
display chords
guitar tuner
edit
Autoscroll
slow
fast
+/-
esc
set tempo
stop
Author
Strumming
There is no strumming pattern for this song yet. and get +5 IQ
Auther/Artist:Garth Brooks
Title:Learning To Live Again
Transcribed by:Justin Harmon
Email:womenarenice@hotmail.com



Intro: Fsus   F     F2    F    Fsus          C
E|-----1-----1-----1-----1-----1-------------------0-------
B|---1-----1-----1-----1-----1-------------------1---------
G|-3-----2-----0-----2-----3------2--0---------0-----------
D|--------------------------------------3----2-------------
A|-----------------------------------------3---------------
E|---------------------------------------------------------


(Fsus) I burned my (F) hand, (F2) I cut my (F) face 
(Fsus) Heaven knows (F) how long it's (C) been 
(Fsus) Since I've (F) felt (F2) so out of (F) place 
(Dm) Wonderin' if I'll fit (C) in  
 
(Fsus) Debbie and (F) Charley said they'd (F2) be here by (F) nine 
And (Fsus) Deb said she (F) might bring a (C) friend 
(Fsus) Just my (F) luck, they're (F2) right on (F) time 
So (Dm) here I go A(C)gain 
 
I'm gonna (Bb) smile my best (F) smile 
And I'm gonna (C) laugh like it's going out of (F) style 
Look in(Bb)to her eyes and (Am) pray that she don't (Bb) see (C) 
That (Gm) learning to (F/A) live A(Bb)gain is (C) killing (Fsus) me (F) (F2) (F)
(Fsus) (F) (C)  
 
(Fsus) Little ca(F)fe, (F2) table for (F) four 
But there's (Fsus) just conver(F)sation for (C) three 
(Fsus) I like the (F) way she let (F2) me get the (F) door 
I (Dm) wonder what she thinks of (C) me  
 
(Fsus) Debbie just (F) whispered, (F2) "You're doin' (F) fine" 
And (Fsus) I wish that (F) I felt the (C) same 
She's (Fsus) asked me to (F) dance, now (F2) her hand's in (f) mine 
Oh, my (Dm) god, I've forgotten her (C) name  
 
I'm gonna (Bb) smile my best (F) smile 
And I'm gonna (C) laugh like it's going out of (F) style 
Look in(Bb)to her eyes and (Am) pray that she don't (Bb) see (C) 
This (Gm) learning to (F/A) live A(Bb)gain is (C) killing 

(F)             (Gm7) (F/A)  (Bb)   (C) 
 
(Fsus) Now here we (F) are be(F2)neath her porch (F) light 
And I (Fsus) say what a (F) great time it's (C) been 
A (Fsus) kiss on the (F) cheek, a (F2) whisper good(F)night 
And I (Dm) say, "can I see you a(C)gain" 

And she just (Bb) smiles her best (F) smile 
And she (C) laughs like it's going out of (F) style 
Looks in(Bb)to my eyes and (Am) says we'll (Bb) see (C) 
Oh, this (Gm) learning to (F/A) live A(Bb)gain is (C) killing (Fsus) me (F) (F2) (F)
God, this (Gm) learing to (F/A) live A(Bb)gain...
is killing me (Fsus) (F) (C) (F)


CHORDS:   

F       xxx211  (used in verses)         
F       xx3211  (used in chorus)
F2      xxx011
Fsus    xxx311
F/A     x03211
C       x32013
Dm      xx0231
Bb      x13331
Am      x02210
Gm      355333
Gm7     353333
Suggest correction
Creating personal tab
Creating personal tab
You can edit any tab online and save it as your Personal.

You can edit, replace or remove any tab part or add personal notes – all changes will be seen only by you.

Personal tabs can be accessed anytime from any device, even offline.
Learn more »
comments
print report bad tab
3 comments total.
+1 reply
neo4484 10 Jun 30, 2008 12:37 PM

this was a very good tab

0 reply
Robby3_16 10 May 17, 2009 11:40 AM

I would only change one part of the intro:

Intro: Fsus F F2 F Fsus C
E|-----1-----1-----1-----1-----1-------------------0-------
B|---1-----1-----1-----1-----1-------------------1---------
G|-3-----2-----0-----2-----3-------2^0---------0-----------
D|--------------------------------------3----2-------------
A|-----------------------------------------3---------------
E|---------------------------------------------------------

0 reply
Robby3_16 10 May 17, 2009 11:41 AM

I would only change one small part:

Intro: Fsus F F2 F Fsus C
E|-----1-----1-----1-----1-----1-------------------0-------
B|---1-----1-----1-----1-----1-------------------1---------
G|-3-----2-----0-----2-----3-------2^0---------0-----------
D|--------------------------------------3----2-------------
A|-----------------------------------------3---------------
E|---------------------------------------------------------

guest
You may want to rate the tab now too:
select rating
Wanna post a correction for this tab? Suggest correction