Oops, an error
Loading. Please wait.

The Dance Tab

version 1
version 1

Whole song

36,303 views 108 this week
no commentswrite comment
1 2 3 4 5
accurate
x 4
add to favorites
launch autoscroll
font size
0
reset
how to read this tab
guitar tuner
Autoscroll
slow
fast
+/-
esc
set tempo
stop
Help us to improve Ultimate-Guitar.com Take our survey!
×
Author
The Dance- Garth Brooks
|---0-2-3-5-3-2--------3-5-7-3------------------------------|
|--0-------------------------------------3------------------|
|--------------------0---------------0-2---2-0-2-0----------|
|-2---------------------------------0-----------------------|
|------------------3----------------------------------------|
|-----------------------------------------------------------|


Guitar intro
  G         C/G       G         C/G     G      D/G C/G      G
|-----------------------------------------------------------------|
|----0---0---1-----------0---0---1---------0----3---1-------0-----|
|--0---0---0---0-------0---0---0---0-----0---0----0---0-----------|
|--------0---2---------------0---2--------------4---2-------0-----|
|----2-------------------2-----------------2----------------------|
|-3-------------------3-----------------3-------------------3-----|


        G           C             D
 Looking back on the memory of the dance we shared

              G          D       G              C
 with all the stars above, for a moment all the world was right.

           D                       Em           D/F#
 How could I have known that you'd ever say good-bye?

     C                      D              D/C        Bm
 And now, i'm glad i didn't know the way it all would end, the way it all 

       C  D    C                        D
 would go. Our lives are better left to chance. 

              D/C        Bm                                G  C/E  G  C/E  G
 I could have missed the pain,but i'd have had to miss the dance.

Holding you I held everything.For a moment wasn't I the king?
 But if i'd only known how the king would fall, hey who's to say you 
 know i might have changed it all. And now i'm glad i didn't know the
 way it all would end, the way it all would go. Our lives are better
 left to chance. I could have missed the pain,but I have had to miss
 the dance.

        C                         D                    D/C        Bm
 Yes my life, it's better left to chance. I could have missed the pain,

                     C    D7    G
 but i'd have had to miss the dance.
Suggest correction
comments
print report bad tab
guest
You may want to rate the tab now too:
select rating
Please do not post tabs as comments. Select "correction" instead!