Oops, an error
Loading. Please wait.

The Dance chords

version 9
version 9

Whole song

163 views 12 this week
no commentswrite comment
1 2 3 4 5
2 more votes to show rating
add to favorites
×
Save as Personal and add changes to this tab that will be seen only by you. Learn more ›
×
You can save this tab as Personal to edit and correct it or add notes. All changes will be seen only by you. Learn more »
launch autoscroll
font size
0
reset
transpose
0
reset
simplify chords
display chords
guitar tuner
edit
Autoscroll
slow
fast
+/-
esc
set tempo
stop
Author
Difficulty
About this tab version
This is a version for acoustic playing. Was this info helpful? Yes No
Strumming
There is no strumming pattern for this song yet. and get +5 IQ
[INTRO]

|---0-2-3-5-3-2--------3-5-7-3------------------------------|
|--0-------------------------------------3------------------|
|--------------------0---------------0-2---2-0-2-0----------|
|-2---------------------------------0-----------------------|
|------------------3----------------------------------------|
|-----------------------------------------------------------|

G  G/C  G  G/C  G  D/G  C  G  G/C  G

[VERSE 1]

        G           C             D
Lookin' back on the mem'ry of the dance we shared
           G           D
'neath the stars above.
      G              C                         
For a moment all the world was right 
          D
how could I have known
           Em           D
that you'd ever say goodbye.


[CHORUS 1]

    C                      D     
And now, I'm glad I didn't know 
                     Bm
the way it all would end,
                     C   D
the way it all would go...

    C                         D     
Our lives, are better left to chance. 
                        Bm
I could have missed the pain
                    C    D   G    G/C  G   
but I'd had have to miss the dance.


[VERSE 2]
        G          C                D
Holding you I held everything for a moment
       G          D
wasn't I the king?
       G                  C                         
If I'd only known how the king would fall.
     D
Hey, who's to say
            Em                    D
You know, I might have changed it all.


[CHORUS 2]

    C                      D     
And now, I'm glad I didn't know 
                     Bm
the way it all would end,
                     C   D
the way it all would go...

    C                         D     
Our lives, are better left to chance. 
                        Bm
I could have missed the pain
                    C    D   G
but I'd had have to miss the dance.

       C                         D
Yes my life, it's better left to chance.
                        Bm
I could have missed the pain,
                    C    D      C     G G/C G
but I'd have had to miss the... dance.


[OUTRO]

|---2-3-0-5-7-------0-5-7-3----------------------0------------------|
|--0--------------3----------------3------------0---3---0-----------|
|---------------0--------------0-2---2---------0---2---2-0---2-0----|
|-2--------------------------0----------4-2-4-2------------------2--|
|--------------3----------------------------------------------------|
|-------------------------------------------------------------------|

G G/C G

            
            
Suggest correction
Creating personal tab
Creating personal tab
You can edit any tab online and save it as your Personal.

You can edit, replace or remove any tab part or add personal notes – all changes will be seen only by you.

Personal tabs can be accessed anytime from any device, even offline.
Learn more »
Give kudos to tab author, rate the tab!
1 2 3 4 5
comments
print report bad tab
guest
You may want to rate the tab now too:
select rating
Wanna post a correction for this tab? Suggest correction