Oops, an error
Loading. Please wait.

When Theres No One Around Tab

3,868 views 13 this week
no commentswrite comment
1 2 3 4 5
please rate
add to favorites
launch autoscroll
font size
0
reset
how to read this tab
guitar tuner
Tab Pro tools
  • play this tab
  • loop segment
  • change instrument
  • show fretboard
  • metronome
×
Best way to learn
"When Theres No One Around"
Autoscroll
slow
fast
+/-
esc
set tempo
stop
Contributor
Capo
2nd fret
----------------------------------------------------------------
           Garth Brooks - When There's No One Around
----------------------------------------------------------------
Tabbed by: dvalukis
Email: dvalukis@mail.usf.edu

I thought it was a shame that this song never got fully tabbed
out correctly. One of my favorite Garth tunes. 

Tuning: Capo 2. Garth capo's 3, but he's tuned down a half step.


List of tricky chords:

     F   Em/F Eb/F D/F  Dsus4
e|---3----3----3----3-----3-------------------------------------|
B|---1----1----1----1-----3-------------------------------------|
G|---0----0----0----0-----2-------------------------------------|
D|---3----2----1----0-----0-------------------------------------|
A|--------------------------------------------------------------|
E|--------------------------------------------------------------|



Intro : G

G
This is a song that nobody knows 
G
I couldn't begin to describe how it goes                                  
    Em                                 Bm
But it makes me cry or laugh right out loud 
       C          G                  D        G
It's a song that I sing when there's no one around 


G
This is the man that nobody sees 
G
He wears my old clothes and he looks just like me 
     Em                                   Bm
Just one of the boys who gets lost in the crowd 
         C          G               D      G
He's the man that I am when there's no one around 


F
It's four in the morning 
   Em/F
I'm lyin' in bed 
   Eb/F
A tape of my failures 
D/F
Playin' inside my head 
     F
It's heartaches and hard knocks 
     Em/F
And things I don't know 
     Eb/F
I listen and I wonder 
Dsus4         D
Where will it go 


G
This is a glimpse of the child that's within 
G
He's so immature but he's still my best friend 
             Em                               Bm
If he could learn how to fly he'd never touch down 
         C          G               D      G
He's the kid that I am when there's no one around 

(Solo)

G
This is the dance I do every day 
G
I let my feet go and get carried away 
   Em                             Bm
I let my soul lead and follow the sound 
         C            G               D      G
It's the dance that I do when there's no one around 


     F 
It's four in the morning 
    Em/F
I'm lyin' in bed 
    Eb/F
A tape of my failures 
        D/F
Playin' inside my head 
     F
It's heartaches and hard knocks 
    Em/F
And things I don't know 
    Eb/F
I listen and I wonder 
Dsus4         D
Where will it go 


G
This is a song that nobody knows 
G
I still can't begin to describe how it goes 
    Em                                  Bm
But it makes me cry our laugh right out loud 
       C           G                 D      Em
It's a song that I sing when there's no one around 
       C           G                 D (pause) G
It's a song that I sing when there's no one around


Solo:

e|--------------------------------------------------------------|
B|------10/14--15/17------/17\---/10-------------------9--------|
G|--/9-------------------------------------2--4--6--/9-9--------|
D|--------------------------------------------------------------|
A|--------------------------------------------------------------|
E|--------------------------------------------------------------|


e|--------------------------------------------------------------|
B|-(7)--2---9--(14)---------------------------------------------|
G|--7---2---9---14----------------------------------------------|
D|--7---2---9---14----------------------------------------------|
A|--------------------------------------------------------------|
E|--------------------------------------------------------------|


=================================================================
comments
We did not receive enough feedback on this tab! Please rate:
print report bad tab
1 2 3 4 5
I want to post or [tab]
guest
You may want to rate the tab now too:
select rating
Please do not post tabs as comments. Select "correction" instead!