Oops, an error
Loading. Please wait.

Bones Tab

1,664 views 1 this week
no commentswrite comment
1 2 3 4 5
x 3
add to favorites
launch autoscroll
font size
0
reset
how to read this tab
guitar tuner
Autoscroll
slow
fast
+/-
esc
set tempo
stop
Help us to improve Ultimate-Guitar.com Take our survey!
×
Author
Tuning
D G C F A D
Gary Allan  "Bones"


(intro)
e|----------------------------------------------------|
B|----------------------------------------------------|
G|-------------------------------------------1-1-p0---|
D|--------0-------0-3-0------------0-------0--------3-|
A|------3---0-3-0-------3-0------3---0-3-0------------|
D|-0-h3---------------------0-h3----------------------|

e|-------------------------------------------|
B|-------------------------------------------|
G|-------------------------------------------|
D|--------0-------0-3-0------------0-------0-|
A|------3---0-3-0-------3-0------3---0-3-0---|
D|-0-h3---------------------0-h3-------------|


(verse)
D
Well I've been out here diggin' a hole,
D
And the madder I get the deeper I go,
D
Maybe you're thinkin' I'm a fool,
D  (no chord)
Or maybe I'm diggin' this hole for you,


(chorus)
         D
I've got bones to pick with you,
              G
I should have known,
             D
You can't be true,
           G
Me and the devil,
               D
We want what's due,
               C                 G
And you should know when you get home,
           C        G         D
That I got bones to pick with you


e|-------------------------------------------|
B|-------------------------------------------|
G|-------------------------------------------|
D|--------0-------0-3-0------------0-------0-|
A|------3---0-3-0-------3-0------3---0-3-0---|
D|-0-h3---------------------0-h3-------------|


(verse)
D
Shoveling dirt and loaded lead,
D
Whiskey burnin' up my head,
D
You can tell your friend I know the news,
D             (no chord)
And I'll deal with him when I'm done with you


(chorus)
         D
I've got bones to pick with you,
              G
I should have known,
             D
You can't be true,
           G
Me and the devil,
               D
We want what's due,
               C                 G
And you should know when you get home,
           C        G         D
That I got bones to pick with you


(instrumental)
e|-----8~--------------------------------------10------10------10------10------10-14br-|
B|-s10----8b-8b-8b-8b-8b-8b-8r-8b-8r------9-9b----9-9b----9-9b----9-9b----9-9b---------|
G|-----------------------------------10-7----------------------------------------------|
D|-------------------------------------------------------------------------------------|
A|-------------------------------------------------------------------------------------|
D|-------------------------------------------------------------------------------------|

e|-14b-13b---------------------7brbrbrbrbrbrbrbr--|
B|---------14b-14brbrbrbr--s10--------------------|
G|------------------------------------------------|
D|------------------------------------------------|
A|------------------------------------------------|
D|------------------------------------------------|


(verse)
D
Yeah maybe you best just leave this town,
D
Yeah prob'ly before the sun goes down,
D
Cause the Devil already knows my name,
D           (no chord)
And you can ask him yourself when I see you again


(chorus-bridge)
D
Bones to pick with you,
              G
I should have known,
             D
You can't be true,
           G
Me and the devil,
               D
We want what's due,
             C                 G
And you just know when you get home,
         C      G        D
I've got bones, I've got bones,
D
To pick with you,
              G
I should have known,
             D
You can't be true
           G
Me and the devil,
               D
We want what's due,
             C                 G
And you just know when you get home,
         C        G         D
I've got bones to pick with you


(instrumental)
e|-----------------------------------------------------|
B|-----------------------------------------------------|
G|--------------------------------------------1-1-p0---|
D|--------0-------0-s3-0------------0-------0--------3-|
A|------3---0-3-0--------3-0------3---0-3-0------------|
D|-0-h3----------------------0-h3----------------------|

e|-------------------------------------------------|
B|-------------------------------------------------|
G|-------------------------------------------------|
D|--------0-------0-s3-0------------0----0---------|
A|------3---0-3-0--------3-0----2s3---s2-----------|
D|-0-h3----------------------0-------------3-p2-p0-|


(out)
D
Well I've been out here diggin' a hole,
D
I'm gonna push you in nice and slow,
D
Well maybe you're thinkin' I'm your fool,
D                                         C  G, C  G  D
Well maybe I'm diggin' this hole for you
Suggest correction
Give kudos to tab author, rate the tab!
1 2 3 4 5
comments
print report bad tab
guest
You may want to rate the tab now too:
select rating
Wanna post a correction for this tab? Suggest correction