Oops, an error
Loading. Please wait.

Every Storm Runs Out Of Rain tab

8,700 views 6 this week
2 commentsread comments
1 2 3 4 5
x 12
add to favorites
×
Save as Personal and add changes to this tab that will be seen only by you. Learn more ›
×
You can save this tab as Personal to edit and correct it or add notes. All changes will be seen only by you. Learn more »
launch autoscroll
font size
0
reset
how to read this tab
guitar tuner
edit
Autoscroll
slow
fast
+/-
esc
set tempo
stop
Author
Difficulty
Standard tuning no capo

Intro


(Guitar 1) e--------0--------0------0--------0-------------|
           B------1--------1----------3--------3-----------|
           G----2--------2--------0--------0---------------|
           D-----------3-----------------------------------|
           A--0-----------------3--------------------------|
           E-----------------------------3-----------------|

  --------0--------0------0--------0-------------|
  ------1--------1----------3--------3-----------|
  ----2--------2--------0--------0---------------|
  -----------3-----------------------------------|
  --0-----------------3--------------------------|
  -----------------------------3-----------------|

Verse 1

  --------0--------0------0--------0-------------|
  ------1--------1----------3--------3-----------|
  ----2--------2--------0--------0---------------|
  -----------3-----------------------------------|
  --0-----------------3--------------------------|
  -----------------------------3-----------------|
  So you're standing in the middle of the thunder and lightning

  --------0--------0------0--------0-------------|
  ------1--------1----------3--------3-----------|
  ----2--------2--------0--------0---------------|
  -----------3-----------------------------------|
  --0-----------------3--------------------------|
  -----------------------------3-----------------|

  --------0--------0------0--------0-------------|
  ------1--------1----------3--------3-----------|
  ----2--------2--------0--------0---------------|
  -----------3-----------------------------------|
  --0-----------------3--------------------------|
  -----------------------------3-----------------|
  I know you're feeling like you just can't win but you're trying

  --------0--------0------0--------0-------------|
  ------1--------1----------3--------3-----------|
  ----2--------2--------0--------0---------------|
  -----------3-----------------------------------|
  --0-----------------3--------------------------|
  -----------------------------3-----------------|

(Guitar 2)  Am                           G
          --------0--------0------0--------0--------|
          ------1--------1----------3--------3------|
          ----2--------2--------0--------0----------|
          -----------3------------------------------|
          --0-----------------3---------------------|
          -----------------------------3------------|
          It's hard to keep on keepin on, when you're being pushed around

    Am                         G
  --------0--------0------0--------0-------------|
  ------1--------1----------3--------3-----------|
  ----2--------2--------0--------0---------------|
  -----------3-----------------------------------|
  --0-----------------3--------------------------|
  -----------------------------3-----------------|
  Don't even know which way is up, you just keep spinning down around down

(Chorus)
Am    F           C           G
Every storm runs, runs out of rain
          Am    F           C          G
Just like every dark night, turns into day
Am    F          C         G
Every heartache, will fade away
          Am    F           C           G
Just like every storm runs, runs out of rain

(Guitar 2)  Am       F        C        G
(Guitar 1)--------0--------0------0--------0-------------| X2
          ------1--------1----------3--------3-----------|
          ----2--------2--------0--------0---------------|
          -----------3-----------------------------------|
          --0-----------------3--------------------------|
          -----------------------------3-----------------|

(Verse 2)
Am           F           C                  G                       Am
So hold your head up and tell yourself that there's something more
F        C        G
And walk out that door
Am        F         C        G                    Am
Go find a new rose, don't be afraid of the thorns
F        C        G
Cause we all have thorns
Am
Just put your feet up to the edge
G
Put your face in the wind
Am
And when you fall back down
C
Keep on remembering

(Chorus)
Am    F           C           G
Every storm runs, runs out of rain
          Am    F           C          G
Just like every dark night, turns into day
Am    F          C         G
Every heartache, will fade away
          Am    F           C           G
Just like every storm runs, runs out of rain

Am  C  Am  F  X4

(Bridge)
Am
It's gonna run out of pain
F
It's gonna run out of steam
Am
It's gonna leave you alone
C                (Stop let ring)
Its gonna set you free, set you free

(Chorus)
Am    F           C           G
Every storm runs, runs out of rain
          Am    F           C          G
Just like every dark night, turns into day
Am    F          C         G
Every heartache, will fade away
          Am    F           C           G
Just like every storm runs, runs out of rain

Am  F  C  G  X5 (end on G)

            
            
Suggest correction
Creating personal tab
Creating personal tab
You can edit any tab online and save it as your Personal.

You can edit, replace or remove any tab part or add personal notes – all changes will be seen only by you.

Personal tabs can be accessed anytime from any device, even offline.
Learn more »
comments
print report bad tab
2 comments total.
0 reply
dstructo 42 Jan 25, 2014 10:21 AM

Oh, so close. The riff uses the D note on the b string (3rd fret), not the C note (1st fret):

|-------0-------0-|-----0-------0---|
|-----3-------3---|-------3-------3-|
|---2-------2-----|---0-------0-----|
|---------3-------|-----------------|
|-0---------------|-3---------------|
|-----------------|---------3-------|

Otherwise, looks pretty good.

0 reply
tyjamo 151 Apr 26, 2014 03:07 PM

Well you are half right. The riff just picks Am F Cadd9 and G, so it does pick the c note on the second string when you pick Am and F, but then you go to the D note when it goes to Cadd9 and G

Like this
---------0----------0------0---------0----
-------1----------1----------3---------3--
-----2----------2--------0---------0------
--------------3---------------------------
--0--------------------3------------------
--------------------------------3---------

Ive made the correct changes for the picking on Cadd9 and G in the tab. Thanks for your input.

guest
You may want to rate the tab now too:
select rating
Wanna post a correction for this tab? Suggest correction