Oops, an error
Loading. Please wait.

Like Its A Bad Thing tab

2,846 views 1 this week
1 commentread comment
1 2 3 4 5
x 3
add to favorites
×
Save as Personal and add changes to this tab that will be seen only by you. Learn more ›
×
You can save this tab as Personal to edit and correct it or add notes. All changes will be seen only by you. Learn more »
launch autoscroll
font size
0
reset
how to read this tab
guitar tuner
edit
Autoscroll
slow
fast
+/-
esc
set tempo
stop
Song: Like It's A Bad Thing
Artist: Gary Allan
Album: Living Hard

Capo III

Intro: (Bm-A-G)  (Bm-A-G)

Guitar 1
E--------------------------------------|
B--------------------------------------|
G--------------------------------------|
D-7/9--9---7/9--9---9/7--7---7/5--5----|
A-7/9--9---7/9--9---9/7--7---7/5--3----|
E-5/7--7---5/7--7---7/5--5---5/3--3----|

             Bm
They say, I drive a little fast
                A                       G                     Bm
Say, I like to push the limit, everyday I'm living like it was my last,

They say, Im proud of my scars
          A                  G              D
Each one tells a story, got guts and glory down to an art
        A                            Bm               G
Say, I know whats its like, to see life pass right before my eyes

Like it's a bad thing.

Chorus
         D                        A                     G
I dont know about you, but I was put here to live and love
    D           A                          G
So, what if I dont do it like everybody else does
      D                                A
They say I'm out on the edge, I'm too willing to risk
             Bm                     Em              G     D
Every bone, every breath, they say, all I am is a crazy dream
            Bm         A-G
Like it's a bad thing.


        Bm
So, my heart's been broke
       A                     G                 D
So, I keep on falling, Im nothing but all in when I let go,
   A                                    Bm                         G
I wear it on my sleeve, Yeah, they call me a fool cause I still believe
     D           G
Like it's a bad thing.

Chorus
         D                        A                     G
I dont know about you, but I was put here to live and love
     D          A                          G
So, what if I dont do it like everybody else does
      D                                A
They say I'm out on the edge, I'm too willing to risk
             Bm                     Em              G     D
Every bone, every breath, they say, all I am is a crazy dream
            Bm         A-G
Like it's a bad thing.

Instrumental:

Guitar 1
E--------------------------------------------------|
B--------------------------------------------------|
G-----5-----7-----5--------------------------------|
D-5h7---5h7---5h7---5b(6)r5-3-3-5-5b(6)-3----------|
A--------------------------------------------------|
E--------------------------------------------------|

Guitar 2
E--------------------------------------------------|
B--------------------------------------------------|
G--------------------------------------------------|
D-----7-----7-----7--------------------------------|
A-7h8---7h8---7h8---7b(8)r7-5-5-7-7b(8)-5----------|
E--------------------------------------------------|

Guitar 3
E--------------------------------------------------|
B------------------------------------------6p3---3-|
G----------------------------------------------5---|
D--------------------------------------------------|
A--------------------------------------------------|
E--------------------------------------------------|

Guitar 1
E------------------------------------------13----13-------------------------|
B----------8/10---------10/13--------13/15----15----15----------------------|
G--10-9-10------10-9-10-------10\9-9----------------------------------------|
D---------------------------------------------------------------------------|
A---------------------------------------------------------------------------|
E---------------------------------------------------------------------------|

Guitar 2
E---------------------------------------------------------------------------|
B---------------------------------------------------------------------------|
G---------4/5------------4/5---------7/10--10-7-10-7------------------------|
D-7--5-7--------7-5-7--------7--5-5-----------------------------------------|
A---------------------------------------------------------------------------|
E---------------------------------------------------------------------------|

Guitar 3
E-------------------------------------------------------------13------------|
B---------------------------------------------------------------------------|
G-----------------------------------------------------12bh(14)---(14)r12-10-|
D---------------------------------------------------------------------------|
A---------------------------------------------------------------------------|
E---------------------------------------------------------------------------|


Repeat Chorus
             A        G
Like it's a bad thing
                 Bm    A-G
Like it's a bad thing

            
            
Suggest correction
Creating personal tab
Creating personal tab
You can edit any tab online and save it as your Personal.

You can edit, replace or remove any tab part or add personal notes – all changes will be seen only by you.

Personal tabs can be accessed anytime from any device, even offline.
Learn more »
Give kudos to tab author, rate the tab!
1 2 3 4 5
comments
print report bad tab
1 comment total.
0 reply
dontletgo94 492 Oct 22, 2014 08:36 AM

Should be a D at the beginning of the second line of the course.

guest
You may want to rate the tab now too:
select rating
Wanna post a correction for this tab? Suggest correction