Oops, an error
Loading. Please wait.

Smoke Rings In The Dark Chords

version 2
version 2

Whole song

Interactive

34,304 views 57 this week
6 commentsread comments
1 2 3 4 5
excellent!
x 13
add to favorites
launch autoscroll
font size
0
reset
transpose
0
reset
- display chords -
guitar tuner
Tab Pro tools
  • play this tab
  • loop segment
  • change instrument
  • show fretboard
  • metronome
Autoscroll
slow
fast
+/-
esc
set tempo
stop
Contributor
Difficulty
novice
INTRO

ELECTRIC GUITAR
E-----------------------------------|
B-----------------------------------|
G-----------------------------------|
D------------5/7----7/9\7\--4-------|repeat once
A-------5h7-------------------------|
E--5h7------------------------------|

ACOUSTIC GUITAR PLAYS RHYTHM
VERSE I

      Bm               D                  G       Bm
WELL, I WON'T MAKE YOU TELL ME, WHAT I'VE COME TO UNDERSTAND,
       Em              G            D         A
G
YOUR A CERTAIN KIND OF WOMAN, I'M A DIFFERENT KIND OF MAN,
     Bm                D               G               Bm
I'VE TRIED TO MAKE YOU LOVE ME, YOU'VE TRIED TO FIND A SPARK,
     Em                     G                  D
     G
OF A FLAME THAT BURNED, BUT SOMEHOW TURNED, TO SMOKE RING IN THE DARK,

INTRO ONCE

VERSE II
    Bm            D       G             Bm
THE LONELINESS WITHIN ME, TAKES A HEAVY TOLL,
         Em               G                   D
    G
CAUSE IT BURNS AS SLOW AS WHISKEY, THROUGH AN EMPTY ACHIN SOLE,
        Bm              D      G                 Bm
AND THE NIGHT IS LIKE A DAGER, LONG AND COLD AND SHARP,
     Em              G                   D
     G
AS I SIT HERE ON THE FRONT STEPS, BLOWIN SMOKE RINGS IN THE DARK,

CHORUS
Bm     G       D              A
I..............KNOW I MUST BE GOING,
      Bm             G         D        A
CAUSE LOVE...........S ALREADY GONE........,
    Em            G                D      A     G
AND ALL IM TAKING WITH ME, ARE THE PIECES OF MY HEART,
    Em                 G                  D
AND ALL I'LL LEAVE ARE SMOKE RINGS IN THE DARK,

ELECTRIC GUITAR
INTRO ONCE THEN

E--------------------------------------------3-----|
B-0--7p5--3h5--0--7p5--3h5--0--7p5--3p5--3-5-------|
G--------------------------------------------------|
D--------------------------------------------------|
A--------------------------------------------2-----|
E--------------------------------------------3-----|

ACOUSTIC
VERSE III
    Bm                  D             G                  Bm
THE RAIN FALLS WHERE IT WANTS TO, THE WIND BLOW WHERE IT WILL,
     Em                  G                D     A
   G
EVERYTHING ON EARTH GOES SOMEWHERE, BUT I SWEAR STANDING STILL,
   Bm            D                 G            Bm
SO I'M NOT GONNA WAKE YOU, I'LL GO EASY ON YOUR HEART,
          Em                   G                D
     G
I'LL JUST TOUCH YOUR FACE, AND DRIFT AWAY, LIKE SMOKE RINGS IN THE DARK,

CHORUS

PLAY INTRO AGAIN OR FINISH ON A GOOD CHORD


THATS IT, I MAY HAVE MIXED A LITTLE OF THE STEAL GUITAR IN WITH IT BUT THATS IT IN A NUT
IF TABBED PARTS DONT SOUND RIGHT THEN JUST MOVE UP OR DOWN A HALF STEP. I WAS TUNED
TO E FLAT TUNING AND I HAD TO USE A CAPO ON FIRST FRET WHEN I WAS TABBING BUT I TRIED TO 
IT IN STANDARD FORM.
comments
print report bad tab
6 comments total. Showing first comments.
0 reply
bama wrote on November 17 2006, 07:13 am

hey if you read this i wrote this tab, for some reason i got booted out of the log in before i submitted and didnt realize it until after but if you have any problems with it just post a comment or send me a post
thanks
bama

0 reply
bama wrote on November 17 2006, 07:18 am

and also some of the chords got out of place somehow

0 reply
tremonti-is-god wrote on April 3 2007, 07:41 pm


on this part,
E-----------------------------------|
B-----------------------------------|
G-----------------------------------|
D------------5/7----7/9\7\--4-------|
A-------5h7-------------------------|
E--5h7------------------------------|

it modifies slightly on the second go before you go into the chords:

E---------------------------------------|
B---------------------------------------|
G---------------------------------------|
D------------5/7----7/9\7\--4\2p0-------|
A-------5h7-----------------------------|
E--5h7----------------------------------|

I want to post or [tab]
guest
You may want to rate the tab now too:
select rating
Please do not post tabs as comments. Select "correction" instead!