Oops, an error
Loading. Please wait.

Smoke Rings In The Dark Chords

version 2
version 2

Whole song

Interactive

36,893 views 96 this week
6 commentsread comments
1 2 3 4 5
x 22
add to favorites
launch autoscroll
font size
0
reset
transpose
0
reset
display chords
guitar tuner
Autoscroll
slow
fast
+/-
esc
set tempo
stop
Help us to improve Ultimate-Guitar.com Take our survey!
×
Author
Difficulty
novice
[Intro]
(electric guitar)
e|-----------------------------------|
B|-----------------------------------|
G|-----------------------------------|
D|------------5/7----7/9\7\--4-------| (x2)
A|-------5h7-------------------------|
E|--5h7------------------------------|

[Verse 1]
(Acoustic guitar)
      Bm               D                  G       Bm
well, i won't make you tell me, what i've come to understand,
       Em              G            D         A
G
your a certain kind of woman, i'm a different kind of man,
     Bm                D               G               Bm
I'VE TRIED TO MAKE YOU LOVE ME, YOU'VE TRIED TO FIND A SPARK,
     Em                     G                  D
     G
of a flame that burned, but somehow turned, to smoke ring in the dark,

[Instrumental]
(electric guitar)
e|-----------------------------------|
B|-----------------------------------|
G|-----------------------------------|
D|------------5/7----7/9\7\--4-------|
A|-------5h7-------------------------|
E|--5h7------------------------------|

[Verse 2]
    Bm            D       G             Bm
the loneliness within me, takes a heavy toll,
         Em               G                   D
    G
cause it burns as slow as whiskey, through an empty achin sole,
        Bm              D      G                 Bm
and the night is like a dager, long and cold and sharp,
     Em              G                   D
     G
as i sit here on the front steps, blowin smoke rings in the dark,

[Chorus]
Bm     G       D              A
I..............know i must be going,
      Bm             G         D        A
Cause love...........s already gone
    Em            G                D      A     G
and all im taking with me, are the pieces of my heart,
    Em                 G                  D
and all i'll leave are smoke rings in the dark,

[Instrumental]
(electric guitar)
e|--------------------------------------------3-----|
B|-0--7p5--3h5--0--7p5--3h5--0--7p5--3p5--3-5-------|
G|--------------------------------------------------|
D|--------------------------------------------------|
A|--------------------------------------------2-----|
E|--------------------------------------------3-----|

(acoustic)
[Verse 3]
    Bm                  D             G                  Bm
the rain falls where it wants to, the wind blow where it will,
     Em                  G                D     A
   G
everything on earth goes somewhere, but i swear standing still,
   Bm            D                 G            Bm
so i'm not gonna wake you, i'll go easy on your heart,
          Em                   G                D
     G
I'LL JUST TOUCH YOUR FACE, AND DRIFT AWAY, LIKE SMOKE RINGS IN THE DARK,

[Chorus]
Bm     G       D              A
I..............know i must be going,
      Bm             G         D        A
Cause love...........s already gone
    Em            G                D      A     G
and all im taking with me, are the pieces of my heart,
    Em                 G                  D
and all i'll leave are smoke rings in the dark,

[Outro]
(electric guitar)
e|--------------------------------------------3-----|
B|-0--7p5--3h5--0--7p5--3h5--0--7p5--3p5--3-5-------|
G|--------------------------------------------------|
D|--------------------------------------------------|
A|--------------------------------------------2-----|
E|--------------------------------------------3-----|


************************************

| /  Slide up
| \  Slide down
| h  Hammer-on
| p  Pull-off

************************************
Suggest correction
comments
print report bad tab
6 comments total. Showing first comments.
0 reply
bama 125 Nov 17, 2006 07:13 AM

hey if you read this i wrote this tab, for some reason i got booted out of the log in before i submitted and didnt realize it until after but if you have any problems with it just post a comment or send me a post
thanks
bama

0 reply
bama 125 Nov 17, 2006 07:18 AM

and also some of the chords got out of place somehow

0 reply
tremonti-is-god 10 Apr 03, 2007 07:41 PM

on this part,
E-----------------------------------|
B-----------------------------------|
G-----------------------------------|
D------------5/7----7/9\7\--4-------|
A-------5h7-------------------------|
E--5h7------------------------------|

it modifies slightly on the second go before you go into the chords:

E---------------------------------------|
B---------------------------------------|
G---------------------------------------|
D------------5/7----7/9\7\--4\2p0-------|
A-------5h7-----------------------------|
E--5h7----------------------------------|

guest
You may want to rate the tab now too:
select rating
Wanna post a correction for this tab? Suggest correction