Oops, an error
Loading. Please wait.

Bright Lights Bass Tab

version 2
version 2

Whole song

3,404 views 6 this week
2 commentsread comments
1 2 3 4 5
worth learning
x 3
add to favorites
launch autoscroll
font size
0
reset
guitar tuner
Tab Pro tools
  • play this tab
  • loop segment
  • change instrument
  • show fretboard
  • metronome
×
Best way to learn
"Bright Lights"
Autoscroll
slow
fast
+/-
esc
set tempo
stop
Difficulty
novice
-----------------------------------------------------------------------------
                     Bright Lights - Gary Clark Jr.
-----------------------------------------------------------------------------

Tabbed by: Country Bass
E-mail: aaron.white8@education.nsw.gov.au

Tuning: Standard

Intro/Chorus

G|-------------------|
D|-------------------|
A|--------------7-5--|
E|--5-5-5-5-5-5------|

Verse

G|----------------|
D|----------------|
A|-----------7-5--|
E|--5---5-5-------|

Interlude

G|----------------|
D|----------------|
A|-------------5--|
E|--5-5-5-5555----|


| /  slide up
| \  slide down
| h  hammer-on
| p  pull-off
| ~  vibrato
| +  harmonic
| x  Mute note
=============================================================================
comments
We did not receive enough feedback on this tab! Please rate:
print report bad tab
1 2 3 4 5
2 comments total.
+1 reply
imburroughs999 wrote on December 3 2014, 09:19 pm

Lack of accuracy. Tab incomplete. Clearly wrong. it does not portray the main riff correctly and is missing parts alltogether. overall it is a very poor tab and would not reccomend it.

0 reply
miles.wiggins wrote on May 4 2016, 11:41 am

Wrong notes and rhythm. Should be |:A A AA C D| A A AA E D:| For the main riff/verse. There's also some little fills here and there.

I want to post or [tab]
guest
You may want to rate the tab now too:
select rating
Please do not post tabs as comments. Select "correction" instead!