Oops, an error
Loading. Please wait.

Bright Lights Tab

version 2
version 2

Whole song

97,880 views 444 this week
2 commentsread comments
1 2 3 4 5
excellent!
x 27
add to favorites
launch autoscroll
font size
0
reset
how to read this tab
guitar tuner
Tab Pro tools
  • play this tab
  • loop segment
  • change instrument
  • show fretboard
  • metronome
Autoscroll
slow
fast
+/-
esc
set tempo
stop
Contributor
-----------------------------------------------------------------------------
                            Bright Lights - Gary Clark Jr.
-----------------------------------------------------------------------------
Tabbed by: dr92

I have Spent some time trying to figure out how to play this song, Any corrections 
and feedback are welcome. Enjoy

intro/verses/chorus
e|-5---5---5---5-5-5---5---5---5-5-|
B|-5---5---5---5-5-5---5---5---5-5-|
G|-5---5---5---5-7-5---5---5---7-5-|
D|-7---7---7---x---7---7---7---x---|
A|-x---x---x---x---x---x---x---x---|
E|-5-5-5-5-5-5-5---5-5-5-5-5-5-5---|


intro/chorus- guitar 2
e|------------------------------|
B|------------------------------|
G|------------------------------|
D|----------------------5~------|
A|-----3-5b-5pbr5p3-------------|
E|-3/5---------------5~---------|

post chorus riff   1st ending          second ending
e|--------------|---------------|      ---------------|
B|-------5------|-------5-------|      -8b------------|
G|---5h7---5h7~-|---5h7---5-----|      ----9-7--------|
D|-7------------|-7---------7~--|      --------10-7~--|
A|--------------|---------------|      ---------------|
E|--------------|---------------|      ---------------|

repeat verse/chorus
w/guitar 2-verse riff
e|-------12------------|
B|----13----13~----13~-|
G|-14-----------14-----|
D|---------------------|
A|---------------------|
E|---------------------|

post chorus
e|------------5---5-5555---5---5-5555---|
B|------------5---5-5555-6-5---5-5555-6-|
G|-5h7-7-7-5--5---5-5555-7-5---5-5555-7-|
D|-5h7-7-7-5--7---7-7777-7-7---7-7777-7-|
A|------------x---x-xxxx-5-x---x-xxxx-5-|
E|------------5-5-5-5555---5-5-5-5555---|

solo
e|------------------------------------5-5---5-----5-7-5---------------------|
B|-5---5------------------------------5-5b8-5b8-8-------5~-----------------8|
G|-7b--7brp5-7~-7/9/7p5------------------------------------7-5-7/9p7\5-7/9-9|
D|----------------------7~-5/7----------------------------------------------|
A|-----------------------------7-5------------------------------------------|
E|---------------------------------5~---------------------------------------|

e|--------------------------------------------------7-5------------|
B|-5-5-------------------------8-----------5~------8---8-5-------5-|
G|-7-5-7/9--5h7----5h7----5/7-7--5h7---5-7---5h7/9---------7-5-7---|
D|--------------7~-----7~------------7-----------------------------|
A|-----------------------------------------------------------------|
E|-----------------------------------------------------------------|

e|---------------------------------------|
B|-----5-----------5------------5--------|
G|-5-7---5-7~--5-7---5-7~---5-7---5-7~---|
D|-------------------------------------7-|
A|---------------------------------------|
E|---------------------------------------|

e|--------------------------------------------------------------------------|
B|--------------------------------------------------------------------------|
G|-5-7brp5-7--5-7brp5-7--5-7brp5-7--5-7brp5-7--5h7--5h7--5h7--5h7--5h7--5h7-|
D|----------7----------7----------7---------------7----7----7----7----7----7|
A|--------------------------------------------------------------------------|
E|--------------------------------------------------------------------------|

e|--------------------------------------------------------------------------|
B|--------------------------------------------------------------------------|
G|5h7--5h7--5h7--5h7--5-7brp5-7--5-7brp5-7--5-7brp5-7--5-7brp5-7-5-7brp5-7--|
D|----7----7----7----7---------7----------7----------7----------7---------7-|
A|--------------------------------------------------------------------------|
E|--------------------------------------------------------------------------|

e|----------------5----------|
B|-8-7-5---5---8b---8-5---7b-|
G|-------7---7----------7----|
D|---------------------------|
A|---------------------------|
E|---------------------------|

repeat verse/ chorus
w/ guitar 2- chorus riff
e|-------12---------------14b| --15b-|
B|----13----13~----13~-------| ------|
G|-14-----------14-----14----| ------|
D|---------------------------| ------|
A|---------------------------| ------|
E|---------------------------| ------|

second solo

guitar 1 
e|---------------------|
B|-5---5-5-5-----------|
G|-5---5-5-5---------7-|just play around switching between Am and D
D|-7-7-7-----7-5-7p5-7-|
A|-7-7---------------5-|
E|---------------------|

guitar 2
e|-15-12------------------------|-12-15-19-15-12--12-----10/12-|
B|-------13-----------13h15-13~-|--------------------15--------|
G|----------14-12-14------------|------------------------------|
D|------------------------------|------------------------------|
A|------------------------------|------------------------------|
E|------------------------------|------------------------------|

e|-15-12----------------------------------------|
B|-------15-13h15-13br-10-13-10~----------------|
G|-------------------------------12-------------|
D|----------------------------------14-12-------|
A|----------------------------------------15-12-|
E|----------------------------------------------|

e|--------------------------------------------------------------------------|
B|--------------------------------------------------------------------------|
G|-14~-12------------14p12------------14p12-----------14p12-------------14~-|
D|--------14p12------------14p12-----------14p12------------14p12-----------|
A|--------------15p12------------15p12-----------15p12------------15p12-----|
E|--------------------------------------------------------------------------|

e|-----------------------13b-12-15b-15b-15b-15b-15b-15b-15b-15b-|
B|----10-12b-10-13-15-12----------------------------------------|
G|-12-----------------------------------------------------------|
D|--------------------------------------------------------------|
A|--------------------------------------------------------------|
E|--------------------------------------------------------------|

e|-20b-19b-17-15-------------------------------------|
B|---------------------------------------------------|
G|---------------12p9----9---------------------------|
D|--------------------12---12-10---10h12-10h12~10----|
A|-------------------------------12---------------12-|
E|---------------------------------------------------|

************************************

| /   slide up
| \   slide down
| h   hammer-on
| p   pull-off
| ~   vibrato
| +   harmonic
| x   Mute note
| b   Bend
| pb  Pre-bend
| br  Bend release
| pbr Pre-bend release
| brb Bend release bend

************************************            
comments
print report bad tab
2 comments total.
+1 reply
dr92 wrote on March 21 2012, 01:08 am

the post chorus riff should be 5th fret on the B string, not 7th, my bad.

+1 reply
hayate94 wrote on June 7 2014, 05:18 pm

This is awesome! Saw him perform this 2 weeks ago, great guitarplayer.

I want to post or [tab]
guest
You may want to rate the tab now too:
select rating
Please do not post tabs as comments. Select "correction" instead!