Oops, an error
Loading. Please wait.

Hold On Live tab

328 views 1 this week
no commentswrite comment
1 2 3 4 5
1 last vote to show rating
add to favorites
×
Save as Personal and add changes to this tab that will be seen only by you. Learn more ›
×
You can save this tab as Personal to edit and correct it or add notes. All changes will be seen only by you. Learn more »
launch autoscroll
font size
0
reset
how to read this tab
guitar tuner
edit
Autoscroll
slow
fast
+/-
esc
set tempo
stop
About this tab version
This tab is based off of Gary Clark Jr.'s live performance on The Tonight Show with Jimmy Fallon, playing solo with a capo. Was this info helpful? Yes No
**This tab is based off of Gary Clark Jr.'s live performance on The Tonight Show with Jimmy Fallon Dec. 9 2016

[Intro/Verse]

Gary strums these chords during the intro and verses of the song.  Usually just strums each chords once
letting it ring for a bar (note: he always comes in a half beat early on the second chord, so the first chord
lasts 3.5 beats, while the second lasts 4.5).

e|---0------------------------------------------------------------------------|
B|---0------------------------------------------------------------------------|
G|---0------------------------------------------------------------------------|
D|---4------------------------------------------------------------------------|
A|---2------------------------------------------------------------------------|
E|---0------------------------------------------------------------------------|

e|---2------------------------------------------------------------------------|
B|---2------------------------------------------------------------------------|
G|---2------------------------------------------------------------------------|
D|---2------------------------------------------------------------------------|
A|---4------------------------------------------------------------------------|
E|---2------------------------------------------------------------------------|


[Chorus]

Strumming pattern is exactly the same as his song "Bright Lights".

e|---4-------4--------4-------4-----------------------------------------------|
B|---4-------4--------4-------4-----------------------------------------------|
G|---4-------4--------4-------4-----------------------------------------------|
D|---4-------4--------4-------4-----------------------------------------------|
A|---6-------6--------6-------6-----------------------------------------------|
E|---4---4---4----4---4---4---4---4-------------------------------------------|

e|---4-------4--------4---4---4---4---4---------------------------------------|
B|---4-------4--------4---4---4---4---4---------------------------------------|
G|---4-------4--------4---4---6---4---4---------------------------------------|
D|---6-------6--------4---6---4---4---6---------------------------------------|
A|---4-------4-------(4)-(4)-(4)-(4)-(4)--------------------------------------|
E|---0---0---0---0------------------------------------------------------------|


[Outro]

Same as chorus, but improvises the riff ending of it with a couple variations like:
e|---4---4---4---4---4--------------------------------------------------------|
B|---4---5---7---4---5--------------------------------------------------------|
G|---4---4---4---4---4--------------------------------------------------------|
D|---4---4---4---4---4--------------------------------------------------------|
A|----------------------------------------------------------------------------|
E|----------------------------------------------------------------------------|

and:

e|---4---4---7---4---4--------------------------------------------------------|
B|---4---5---4---4---5--------------------------------------------------------|
G|---4---4---4---4---4--------------------------------------------------------|
D|---4---4---4---4---4--------------------------------------------------------|
A|----------------------------------------------------------------------------|
E|----------------------------------------------------------------------------|

Then he slows down the chorus progression and ends by slowly strumming the opening chord:

e|--------0-------------------------------------------------------------------|
B|-------0--------------------------------------------------------------------|
G|------0---------------------------------------------------------------------|
D|-----4----------------------------------------------------------------------|
A|----2-----------------------------------------------------------------------|
E|---0------------------------------------------------------------------------|

Then he does the same slow strum on the taut strings below the bridge and above the nut for embellishment.

Hope this helps!  This is my first tab, so let me know if you have any suggestions or comments, thank you!

************************************

| (n) Ghost note

************************************

            
            
Suggest correction
Creating personal tab
Creating personal tab
You can edit any tab online and save it as your Personal.

You can edit, replace or remove any tab part or add personal notes – all changes will be seen only by you.

Personal tabs can be accessed anytime from any device, even offline.
Learn more »
Give kudos to tab author, rate the tab!
1 2 3 4 5
comments
print report bad tab
guest
You may want to rate the tab now too:
select rating
Wanna post a correction for this tab? Suggest correction