Oops, an error
Loading. Please wait.

Things Are Changin tab

version 1
version 1

Whole song

  • To me this version sounded really good, its not ha... Show more
80,725 views 198 this week
13 commentsread comments
1 2 3 4 5
x 45
add to favorites
×
Save as Personal and add changes to this tab that will be seen only by you. Learn more ›
×
You can save this tab as Personal to edit and correct it or add notes. All changes will be seen only by you. Learn more »
launch autoscroll
font size
0
reset
how to read this tab
guitar tuner
edit
Autoscroll
slow
fast
+/-
esc
set tempo
stop
-------------------------------------------------------------------------------
                             Things are Changin - Gary Clark Jr.
-------------------------------------------------------------------------------
Tabbed by: dr92
Tuning: Standard

This is the Live Version of Things Are Changin' from the Bright Lights E.P,
I have spent hours, working this out by ear, I'm pretty sure its accurate.
Any feedback or corrections are welcome. Enjoy.

[intro] (x2)
(0:00-0:23)
e|-----0------------0-----------4-------4-------4------------|
B|----7------0-----7-----0-----------------------------------|
G|----------6-----------6------6-------6-------6------6------|
D|--7-------------7-----------7-------7-------7-------- 7----|
A|-5-------5-----5-----5-----0-------0-------0-------0-------|
E|-----------------------------------------------------------|
                               | first time             | end on |
e|----0-------------0----------|-----4-----5-----7------|---4--4-|
B|---7-------0-----7-------0---|------------------------|---0--0-|
G|----------6-------------6----|---6-----6-----6----6---|---6----|
D|--7-------------7------------|--7-----7-----7------7--|---7----|
A|-5-------5-----5-------5-----|-0-----0-----0-----0----|---0----|
E|-----------------------------|------------------------|--------|


[verse]
(0:23-0:34)
e|-----------------7-------------------------------7---------------|
B|---7-x---7-7-x---5---5h7p5-----5---7-x---5---x---5-x---5h7---5---|
G|---6-x---6-x-x---4---------4---4---6-x-----6-x-----x---4-----4-4-|
D|-7-7-x-7-7-7-x-6---6---------6---7---x-7-----x-6---x-6-----6---6-|
A|-5-----5-------4---4---------4---5-----5-------4-----4-----4-----|
E|-----------------------------------------------------------------|

(0:34-0:39)
e|-------------------4h7p4---------------|
B|---7-x---5-----5---5------5h7p5------5-|
G|---6-x-----6---6----------4----------4-|
D|-7---x-7-----x---6------6-------6-x--6-|
A|-5-----5-----x---4------4---------x----|
E|---------------------------------------|

(0:39-0:50)
e|-------------------7---4------------------------4h7p4-----------------|
B|---7-x---5-----5---5-x-5-x-7---5---7-x-7-7-5----------x---5h7p5-----5-|
G|---6-x-----6---6-----x---x-4-x-4---6-x-6-6-6----------x---------4---4-|
D|-7---x-7-----7---6---x---x---x---7---x-------6--------x-6-------------|
A|-5-----5-----5---4---------------5-----------4----------4---------4---|
E|----------------------------------------------------------------------|


(0:51-1:00)
e|---------------4h7p4-----------------------------4h7p4--------------|
B|---7-x-----7---5-------7---5-----7-x-----7-x-----5-----x--5h7p5---5-|
G|---6-x-----6-----------4---4-----6-x-----6-x-----------x--4-------4-|
D|-7-7-x-----7-6-------------------7-x-----7-x---6------------------6-|
A|-5-----0-5---4-------4---4---5-5-----0-5-----4-4---------4------4---|
E|--------------------------------------------------------------------|

(1:00-1:12)
e|-------------------7---4---------------------4h7p4---------------|
B|---7-x-----7-x-----5---5-x-7-x-5---7-----7---5-----x---5h7p5---5-|
G|---6-x-----6-x-------x---x-4-x-4---6-----6---------x---4-------4-|
D|---7-x-----7-x-------x---x---x---7-----7---6-------------------6-|
A|-5-----0-5-----4-4---x---x---x---5---0-5---4---------4-------4---|
E|-----------------------------------------------------------------|

(1:12-!:25)
e|-----------------7---4-----------------------------7---------------|
B|---7---7---7-----5-x-5---7-x---5---7-x-----7-x-----5---5h7p5---5---|
G|---6-x-6---6-------x-----4-x---4---6-x-----6-x---------4-------4---|
D|-----x---------6---x----6--x-6-----7-x-----7-x-------------------6-|
A|-5-------5---4-4-------4---------5-----0-5-----4-4---4-------4---4-|
E|-------------------------------------------------------------------|

(1:25-1:36)
e|-------------------7---4--------------------------7---------------|
B|---7-x-----7-x-----5---5-x-7-x---5---7-x-----7----5---5h7p5---x-5-|
G|---6-x-----6-x-------x---x-4-x---4---6-x-----6--------4-----4-x-4-|
D|---7-x-----7-x-------x---x---x-6---7---x-----7----------------x-6-|
A|-5-----0-5-----4-4---x---x---x-----5-----0-5---4----4-------------|
E|------------------------------------------------------------------|


(1:36-1:47)
e|-------------------7----------------------------------4h7p4---------------|
B|---7-x-----7-x-----5-x---5h7p5---x-5---7-x-----7-x-5--5-----x--5h7p5-x---5|
G|---6-x-----6-x-------x---4-----4-x-4---6-x-----6-x-4--------x--4-----x---4|
D|---7-x-----7-x-------x-----------x-6---7-x-----7-x-6--------x--------x---6|
A|-5-----0-5-----4-4-----4-------------5-----0-5-------4--------4--------4--|
E|--------------------------------------------------------------------------|

(1:47-1:59)
e|-----------------7-------------------------------5h7p5-----------------|
B|---7---7---7-----5-x--7p5---5-5---7-x-7---7-x-5--------x--5h7p5-5---5--|
G|---6-x-6---6-------x------6---4---6-x-6---6-x-4--------x--4-----4---4--|
D|-----x-------------x----------6---7-x-----7-x----------x--------6---6--|
A|-5-------5---4-------4----------5-------5-------4--------4--------4----|
E|-----------------------------------------------------------------------|

(2:00-1:10)
e|-------------------7-----------------------------7---------------|
B|---7-x-----7-x-7---5---7---5-----7-x-----7-x-----5---5h7p5-------|
G|---6-x-----6-x-6-------4---4-----6-x-----6-x-----------------x---|
D|---7-x-----7-x---6---------------7-x-----7-x-----------------x---|
A|-5-----0-5-------4---4---4---5-5-----0-5-----4-4---4-------4---4-|
E|-----------------------------------------------------------------|

(2:10-1:15)
e|-------------------7---------|
B|---7-x-----7-x-7---5---7---5-|
G|---6-x-----6-x-6-------4---4-|
D|---7-x-----7-x---6-----------|
A|-5-----0-5-------4---4---4---|
E|-----------------------------|

(2:15-2:21)
e|-------0------------0------------4-----4-----4-----|
B|-----7-----0-----7--------0------------------------|
G|---------6-------------6-----6-----6-----6-----6---|
D|---7-----------7-----------7---7-----7-----7-----7-|
A|-5---5-5-5---5---5-5---5---0-----0-----0-----0-----|
E|---------------------------------------------------|

(2:21-2:26)                         
e|-------0------------0------------4-----5-----7-----|
B|-----7-----0-----7--------0------------------------|
G|---------6-------------6-----6-----6-----6-----6---|
D|---7-----------7-----------7---7-----7-----7-----7-|
A|-5---5-5-5---5---5-5---5---0-----0-----0-----0-----|
E|---------------------------------------------------|
(2:27-2:32)
e|-------0------------0------------4-----4-----4-----|
B|-----7-----0-----7--------0------------------------|
G|---------6-------------6-----6-----6-----6-----6---|
D|---7-----------7-----------7---7-----7-----7-----7-|
A|-5---5-5-5---5---5-5---5---0-----0-----0-----0-----|
E|---------------------------------------------------|

(2:32-2:38)
e|-------0-----------0-------4--7-4-|
B|-----7-----0-----7-----0---0--0-0-|
G|---------6-----------6-----6--6-6-|
D|---7-----------7-----------7------|
A|-5---5-5-5---5---5-5-5-----0------|
E|----------------------------------|

(2:38-2:49)
e|---------5-------4h7p4-----------------------------------7---4------------|
B|---7-7---7-x-----5-----x---5h7p5-5---5---7-x-----7-x-----5---5-x---7-x--5-|
G|---6-6-----x-----------x---4-----4---4---6-x-----6-x-------x---x---4-x--4-|
D|---7-7-----x-----------x-----------6-6---7-x-----7-x-------x---x-6---x-6--|
A|-5-----5-----4-4---------4-------------5-----0-5-----4-4---x---x-----x----|
E|--------------------------------------------------------------------------|

(2:49-3:00)
e|------------------4h7p4-------------------------------------7---------|
B|---7-x-----7-x----5-----x---5h7p5---5------7-x-----7-x------5---------|
G|---6-x-----6-x----------x---4-------4------6-x-----6-x--------7\6p4/6-|
D|---7-x-----7-x----------x---------6-6------7-x-----7-x--------6-------|
A|-5-----0-5-----4-4--------4-----------4--5-----0-5-----4-4------------|
E|----------------------------------------------------------------------|

(3:00-3:12)
e|--------------4h7p4-------------------------------4h7p4----------------|
B|--------7-x---5-----x---5h7p5--5---7-x-7---7-x-7--5-----x---5h7p5--x-5-|
G|---6----6-x---------x---4------4---6-x-6---6-x-6--------x---4------x-4-|
D|---7----7-x-6-------x--------6-----7-x-7---7-x---6------x--------6-x---|
A|-5--0-5-----4---------4----------5-------5-------4---------4-----------|
E|-----------------------------------------------------------------------|

(3:12-3:24)
e|-------------------7------------------------------4h7p4----------|
B|---7-x-----7-x-7---5---7---5-----7-x-----5-x-7----5------7p5---5-|
G|---6-x-----6-x-6-------4---4-----6-x-----6-x-6-----------4-----4-|
D|---7-x-----7-x---6---------------7-x-----7-x---------------------|
A|-5-----0-5-------4---4---4---5-5-----0-5-------4-4-----4-----4---|
E|-----------------------------------------------------------------|

(3:24-3:35)
e|-------------------4h7p4--------------------------------4h7p4-------------|
B|---7-x-----7-x-5---5------5h7p5---x-5---7-x-----7-x-----5-------7p5---5---|
G|---6-x-----6-x-4----------4-------x-4---6-x-----6-x-------------4-----4---|
D|---7-x-----7-x-6--------6-------6-x-----7-x-----7-x-----------------------|
A|-5-----0-5-------4--------------------5-----0-5-----0-4-------4-----4---4-|
E|--------------------------------------------------------------------------|

(3:35-3:46)
e|-------------------4h7p4----------------------------------7------------|
B|---7-x-7---7-x-5---5-------5h7p5--x-5-----7-x-----7-x-----5--7p5---5---|
G|---6-x-6---6-x-4-----------4------x-4-----6-x-----6-x--------4-----4---|
D|---7-x-7---7-x-6---------6------6-x-------7-x-----7-x------------------|
A|-5-------5-------4--------------------4-5-----0-5-----4-4---4----4---4-|
E|-----------------------------------------------------------------------|

(3:46-3:57)
e|-------------------4h7p4-------------------------------7---4-----------|
B|---7-x-----7-x-5---5------5h7p5---x-5---7-x---7---x-7--5-x-5-x-7-x---5-|
G|---6-x-----6-x-4----------4-------x-4---6-x---6---x-6----x---x-4-x---4-|
D|---7-x-----7-x-6--------6---------x-----7-x---7---x-7----x---x---x-----|
A|-5-----0-5-------4--------------4-----5-----0-5-5-----4------------4---|
E|-----------------------------------------------------------------------|


(3:57-4:09)
e|-------------------7---------------------------------7---4-------------|
B|---7-x-----7-x-5---5-x---5h7p5---5---7-x---7---x-5---5-x-5-----7-----5-|
G|---6-x-----6-x-4-----x-----------4---6-x---6---x-4-----x-------4-x---4-|
D|---7-x-----7-x-6-----x---------6-----7-x-----7-x-6-----x-----6---x---6-|
A|-5-----5-5-------4-----4-----------5-----5---------4-------4-----x-4---|
E|-----------------------------------------------------------------------|


(3:57-4:09)
e|-------------------7---------------------------------7---4-------------|
B|---7-x-----7-x-5---5-x---5h7p5---5---7-x---7---x-5---5-x-5-----7-----5-|
G|---6-x-----6-x-4-----x-----------4---6-x---6---x-4-----x-------4-x---4-|
D|---7-x-----7-x-6-----x---------6-----7-x-----7-x-6-----x-----6---x---6-|
A|-5-----5-5-------4-----4-----------5-----5---------4-------4-----x-4---|
E|-----------------------------------------------------------------------|


(4:09-4:20)
e|-----0-0-0-0-0-0-0-0-0-0-0-0-0-0-0-0-------0---5-5-5-5-----0---0---0---|
B|-----7-7-7-7-7-7-7-7-7-7-7-7-7-7-7-7-------3---3-3-3-3-----1---1---1---|
G|-----6-6-6-6-6-6-6-6-6-6-6-6-6-6-6-6-------0---0-0-0-0---2-2-2-2-2-2-2-|
D|---7-7-7-7-7-7-7-7-7-7-7-7-7-7-7-7-7/5-5-5-5-5-5-5-5-5-3-3-3-3-3-3-3-3-|
A|-5---------------------------------------------------------------------|
E|-----------------------------------------------------------------------|

(4:20-4:31)
e|-0---0---0---0---0---0---0---0----7-|
B|-5---5---5---5---5---5---5---5----5-|
G|-6-6-6-6-6-6-6-6-6-6-6-6-6-6-6-6--6-|
D|-7-7-7-7-7-7-7-7-7-7-7-7-7-7-7-7--7-|
A|------------------------------------|
E|------------------------------------|


************************************

| x  Dead note
| h  Hammer-on
| p  Pull-off
| /  Slide up
| \  Slide down

************************************

            
            
Suggest correction
Creating personal tab
Creating personal tab
You can edit any tab online and save it as your Personal.

You can edit, replace or remove any tab part or add personal notes – all changes will be seen only by you.

Personal tabs can be accessed anytime from any device, even offline.
Learn more »
comments
print report bad tab
13 comments total. Showing first comments.
0 reply
tjpokomo 10 Apr 01, 2012 05:22 PM

DUDE!!!! tabb intro is messed up. the intro is correct untill u play the 5 on the A string and the 0 on the e. after that part it goes... Well erase the 7 on the B string and put the 6 on the G and 5 on the A there insted. then after u play 0 on the B string...
Re read this mutiple times if u need to. If u play the first 3 seconds of the intro and then listen to the song u can hear that its wrong. its just that one part u can fix tho

+4 reply
Franschan 10 Sep 17, 2012 07:11 PM

thanks man... and to tjpokomo, this tab is correct. u are speaking gibberish....

0 reply
Dilara 10 Oct 01, 2012 09:09 AM

Thank you so much, I appreciate it a lot!

guest
You may want to rate the tab now too:
select rating
Wanna post a correction for this tab? Suggest correction