Oops, an error
Loading. Please wait.

When My Train Pulls In Tab

version 1
version 1

Whole song

45,557 views 54 this week
1 commentread comment
1 2 3 4 5
accurate
x 15
add to favorites
launch autoscroll
font size
0
reset
how to read this tab
guitar tuner
Tab Pro tools
  • play this tab
  • loop segment
  • change instrument
  • show fretboard
  • metronome
×
Best way to learn
"When My Train Pulls In"
Autoscroll
slow
fast
+/-
esc
set tempo
stop
Contributor
-------------------------------------------------------------------------------
                            When My Train Pulls In - Gary Clark Jr.
-------------------------------------------------------------------------------
Tabbed by:Famous Amos
Email:

Tuning:

e|--------------------------------------------------------------------------|
B|--------------------------------------------------------------------------|
G|--------------------------1------------------------------------1----------|
D|------0------0---0h2------2---------0---------0---0h2----------2----------|
A|--0h2----0h2--------------2-----0h2------0h2-------------------2----------|
E|----------------------0---0------------------------------0-----0----------|

e|----------------------------------------------------------------------------|
B|----------------------------------------------------------------------------|
G|----------------------------------1-----------------------------------------|
D|-------0--------------------------2-----------------------------------------|
A|---0h2-----0h2--0-----------------2-----------------------------------------|
E|--------------------3p0----0------0-----------------------------------------|



************************************

| /   slide up
| \   slide down
| h   hammer-on
| p   pull-off
| ~   vibrato
| +   harmonic
| x   Mute note
| b   Bend
| pb  Pre-bend
| br  Bend release
| pbr Pre-bend release
| brb Bend release bend

************************************
comments
print report bad tab
1 comment total.
+1 reply
iamchrisreeve wrote on July 22 2014, 03:18 pm

[Em] [Am] [Bm]


e|-------------------------------------------------------------------|
B|-------------------------------------------------------------------|
G|-------------------------------------------------------------------|
D|------0---------0h2---2-------------------------------------------|
A|--0h2----0h2------------------------------------------------------|
E|-------------3------0----------------------------------------------|

I want to post or [tab]
guest
You may want to rate the tab now too:
select rating
Please do not post tabs as comments. Select "correction" instead!