Oops, an error
Loading. Please wait.

When My Train Pulls In Tab

version 2
version 2

Whole song

12,868 views 18 this week
3 commentsread comments
1 2 3 4 5
accurate
x 7
add to favorites
launch autoscroll
font size
0
reset
how to read this tab
guitar tuner
Tab Pro tools
  • play this tab
  • loop segment
  • change instrument
  • show fretboard
  • metronome
×
Best way to learn
"When My Train Pulls In"
Autoscroll
slow
fast
+/-
esc
set tempo
stop
Difficulty
intermediate
e|-----------------------------------------------------------------------------|
B|-----------------------------------------------------------------------------|
G|-----------------------------------------------------------------------------|
D|------0-----------0h2------0-------------------------------------------------|
A|--0h2----0h2-----------------------------------------------------------------|
E|------------- 3~ ------0-----------------------------------------------------|

he basically does this all through the song

exactly how he plays it on KCRW
http://www.youtube.com/watch?v=NnFKMoYiBUw


| /   slide up
| \   slide down
| h   hammer-on
| p   pull-off
| ~   vibrato
comments
print report bad tab
3 comments total.
0 reply
sqwags wrote on January 19 2014, 06:26 pm

Not Bad, Not Bad At all

0 reply
Poptop56 wrote on July 21 2014, 04:23 pm

Tab incomplete.

+1 reply
Spire2000 wrote on October 3 2014, 08:42 pm

Minor correction. For reference: https://www.youtube.com/watch?v=tOeFJF3tTSU

e|-----------------------------------------------------------------------------|
B|-----------------------------------------------------------------------------|
G|-----------------------------------------------------------------------------|
D|------0-----------0h2------2-------------------------------------------------|
A|--0h2----0h2-----------------------------------------------------------------|
E|------------- 3~ ------0------0----------------------------------------------|

I want to post or [tab]
guest
You may want to rate the tab now too:
select rating
Please do not post tabs as comments. Select "correction" instead!