Oops, an error
Loading. Please wait.

Another Rock And Roll Christmas bass

40 views 1 this week
no commentswrite comment
1 2 3 4 5
2 more votes to show rating
add to favorites
×
Save as Personal and add changes to this tab that will be seen only by you. Learn more ›
×
You can save this tab as Personal to edit and correct it or add notes. All changes will be seen only by you. Learn more »
launch autoscroll
font size
0
reset
guitar tuner
edit
Autoscroll
slow
fast
+/-
esc
set tempo
stop
Author

Another Rock n’ Roll Christmas
Single release by Gary Glitter in late 1984 peaked at number 7 in UK
Tab by bass50611. My tab is not exact but it does fit. 
Play as a walking bass line.

Intro:                                  (Play This Bit x2)
G|------------------------------------------------|
D|------------------------------------------------|
A|-------------6--6--6--6--------------6--6--6--6-|
E|-4--4--4--4--------------4--4--4--4-------------|

Verse 1:
G|-------------------------------------------------------------------|
D|-------------------------------------3--6--3-----------------------|
A|---3--6--3----3--6--3----3--6--3---4----------6--4--3----6--4--3---|
E|-4----------4----------4------------------------------6----------6-|

G|----------------------------------------------------------------------|
D|--------------------------------------------------------------3--6--3-|
A|-6--4--3-------3--6--3------3--6--3----3--6--3----3--6--3---4---------|
E|---------6---4------------4----------4----------4---------------------|

G|--------------------------------------------|
D|------------------------------------3--4--5-|
A|-6--4--3----6--4--3----6--4--3----6---------|
E|---------6----------6----------6------------|

Chorus 1:
G|------------------------------------------------------------------------|
D|-6--6--6--5--3--3--3--3-------------------------------------------------|
A|-------------------------4--4--4--5--6--6--6--5--4--4--4--4--4--4--4--5-|
E|------------------------------------------------------------------------|

G|----------------------------------------------------------------------|
D|----------------------------------------------------------------------|
A|-6--6--6--6--6--4--3---------------------------4--4--4--5--6--6--6--5-|
E|---------------------6--4--4--4--3--1--1--1--1------------------------|

G|-----------------------------------------------|
D|-----------------------------------------------|
A|-4--4--4--4--4--4--4--5--6--6--6--6--6--4--3---|
E|---------------------------------------------6-|

Verse 2:
G|-------------------------------------------------------------------|
D|-------------------------------------3--6--3-----------------------|
A|---3--6--3----3--6--3----3--6--3---4----------6--4--3----6--4--3---|
E|-4----------4----------4------------------------------6----------6-|

G|----------------------------------------------------------------------|
D|--------------------------------------------------------------3--6--3-|
A|-6--4--3-------3--6--3------3--6--3----3--6--3----3--6--3---4---------|
E|---------6---4------------4----------4----------4---------------------|

G|--------------------------------------------|
D|------------------------------------3--4--5-|
A|-6--4--3----6--4--3----6--4--3----6---------|
E|---------6----------6----------6------------|

Chorus 2:
G|------------------------------------------------------------------------|
D|-6--6--6--5--3--3--3--3-------------------------------------------------|
A|-------------------------4--4--4--5--6--6--6--5--4--4--4--4--4--4--4--5-|
E|------------------------------------------------------------------------|

G|----------------------------------------------------------------------|
D|----------------------------------------------------------------------|
A|-6--6--6--6--6--4--3---------------------------4--4--4--5--6--6--6--5-|
E|---------------------6--4--4--4--3--1--1--1--1------------------------|

G|------------------------------------------------|
D|------------------------------------------------|
A|-4--4--4--4--4--4--4--5--6--6--6--6--6--6--6--6-|
E|------------------------------------------------|

Bridge:
G|------------------------------------------------------------------------|
D|------------------------------------------------------------------------|
A|-8--8--8--8--8--8--8--7--6--6--6--6--6--6--6--7--8--8--8--8--8--8--8--7-|
E|------------------------------------------------------------------------|

G|-----------------------|
D|-----------------------|
A|-6--6--6--6--6--4--3---|
E|---------------------6-|

Verse 3:
G|-------------------------------------------------------------------|
D|-------------------------------------3--6--3-----------------------|
A|---3--6--3----3--6--3----3--6--3---4----------6--4--3----6--4--3---|
E|-4----------4----------4------------------------------6----------6-|

G|----------------------------------------------------------------------|
D|--------------------------------------------------------------3--6--3-|
A|-6--4--3-------3--6--3------3--6--3----3--6--3----3--6--3---4---------|
E|---------6---4------------4----------4----------4---------------------|

G|--------------------------------------------|
D|------------------------------------3--4--5-|
A|-6--4--3----6--4--3----6--4--3----6---------|
E|---------6----------6----------6------------|

Chorus 2:
G|------------------------------------------------------------------------|
D|-6--6--6--5--3--3--3--3-------------------------------------------------|
A|-------------------------4--4--4--5--6--6--6--5--4--4--4--4--4--4--4--5-|
E|------------------------------------------------------------------------|

G|----------------------------------------------------------------------|
D|----------------------------------------------------------------------|
A|-6--6--6--6--6--4--3---------------------------4--4--4--5--6--6--6--5-|
E|---------------------6--4--4--4--3--1--1--1--1------------------------|

G|------------------------------------------------|
D|------------------------------------------------|
A|-4--4--4--4--4--4--4--5--6--6--6--6--6--6--6--6-|
E|------------------------------------------------|

Interlude:
G|-----------------------------------------------------------------------|
D|-6--6--6--6--------------6--6--6--6--------------6--6--6--6------------|
A|-------------6--6--6--6--------------6--6--6--6-------------6--6--6--6-|
E|-----------------------------------------------------------------------|

G|----------------------|
D|-6--6--6--6----3--4—5-|
A|-------------6--------|
E|----------------------|

Outro Chorus:    (Repeat To Fade/End)
G|------------------------------------------------------------------------|
D|-6--6--6--5--3--3--3--3-------------------------------------------------|
A|-------------------------4--4--4--5--6--6--6--5--4--4--4--4--4--4--4--5-|
E|------------------------------------------------------------------------|

G|----------------------------------------------------------------------|
D|----------------------------------------------------------------------|
A|-6--6--6--6--6--4--3---------------------------4--4--4--5--6--6--6--5-|
E|---------------------6--4--4--4--3--1--1--1--1------------------------|

G|-----------------------------------------------|
D|---------------------------------------3--4--5-|
A|-4--4--4--4--4--4--4--5--6--6--6--6--6---------|
E|-----------------------------------------------|
Suggest correction
Creating personal tab
Creating personal tab
You can edit any tab online and save it as your Personal.

You can edit, replace or remove any tab part or add personal notes – all changes will be seen only by you.

Personal tabs can be accessed anytime from any device, even offline.
Learn more »
Give kudos to tab author, rate the tab!
1 2 3 4 5
comments
print report bad tab
guest
You may want to rate the tab now too:
select rating
Wanna post a correction for this tab? Suggest correction