Oops, an error
Loading. Please wait.

Rudolph The Red Nosed Reindeer tab

31 views 3 this week
no commentswrite comment
1 2 3 4 5
3 more votes to show rating
add to favorites
×
Save as Personal and add changes to this tab that will be seen only by you. Learn more ›
×
You can save this tab as Personal to edit and correct it or add notes. All changes will be seen only by you. Learn more »
launch autoscroll
font size
0
reset
how to read this tab
guitar tuner
edit
Autoscroll
slow
fast
+/-
esc
set tempo
stop
D#|-7~----------------------7~--------------------10b12~~--|
A#|-8~----------------------8~-----------8-10-8---10b12~~--|
F#|-----7h9-9~--9p7---7-9p7----9-9~-------------7----------|
C#|-----------------9----------------7h9-------------------|
G#|--------------------------------------------------------|
D#|--------------------------------------------------------|

D#|------------------------------------------------0---------0------------|
A#|-10b12r10p8---10-8~-5p3---3-----------------------0-3/5~----5-5p3---5--|
F#|------------9-----------4---4-2-0h2p0---2/3b4==-------------------4----|
C#|--------------------------------------2--------------------------------|
G#|-----------------------------------------------------------------------|
D#|-----------------------------------------------------------------------|

D#|--------------------0-----0----3~------------------------|
A#|-/3-3-3---------/5----/5----/5-----5----3~-0------3------|
F#|-/4-4---4\2p0-------------------------4------2/4~---4\2--|
C#|--------------2------------------------------------------|
G#|---------------------------------------------------------|
D#|---------------------------------------------------------|

D#|-------0---0--------------------------------------|
A#|-------------3~--3-3/5--5-5p3--0------3-----------|
F#|-0-0h1---------------------------2/4----4\2=p0----|
C#|-----------------------------------------------2--|
G#|--------------------------------------------------|
D#|--------------------------------------------------|

D#|-/5--5-5----------------------------------------|
A#|-/7--7-7--\5-3----3h5--3h5--3-------3-----------|
F#|----------------4--------------2/4----4\2=p0----|
C#|---------------------------------------------2--|
G#|------------------------------------------------|
D#|------------------------------------------------|

D#|-----0-----------------------------|
A#|-------/3--3-----------------------|
F#|-0h1---/4----4\2p0---0h1-----------|
C#|-------------------2---------------|
G#|---------------------------0-1-2~--|
D#|-------------------------3---------|

[VERSE]
D#|---------------12--------------------------12-11--|
A#|-12-14--12--------14-12---12--14-12-14-12---------|
F#|-----------13-------------------------------------|
C#|--------------------------------------------------|
G#|--------------------------------------------------|
D#|--------------------------------------------------|

D#|--------------11-9-----------------------------------------------12----|
A#|-10-12--10---------12----12--14-12-14-12----------------12-14-12----12-|
F#|-----------11----------------------------12-14-13~--/13----------------|
C#|-----------------------------------------------------------------------|
G#|-----------------------------------------------------------------------|
D#|-----------------------------------------------------------------------|

D#|--------------/12-------------------------/12-11--|
A#|-12-14--12--------14-12---12--14-12-14-12---------|
F#|-----------13-------------------------------------|
C#|--------------------------------------------------|
G#|--------------------------------------------------|
D#|--------------------------------------------------|

D#|--------------11-9------------------------12h14-12--|
A#|-10-12--10---------12----12--14-12-14-12------------|
F#|-----------11---------------------------------------|
C#|----------------------------------------------------|
G#|----------------------------------------------------|
D#|----------------------------------------------------|

[CHORUS]
D#|--9---9--9--12----------------------9------------------------12--------|
A#|-10--10-10------14--12-----12---/10----12--10-9--------12-14----14-12--|
F#|------------------------13-------------------------/13-----------------|
C#|-----------------------------------------------------------------------|
G#|-----------------------------------------------------------------------|
D#|-----------------------------------------------------------------------|

D#|-----------------11--11-11-----12-12--11-------------------|
A#|---------12--14--12--12-12---------------14--12~~----------|
F#|-11--13------------------------------------------14--11~---|
C#|-----------------------------------------------------------|
G#|-----------------------------------------------------------|
D#|-----------------------------------------------------------|

[VERSE]
[SOLO 1]
D#|-/15-15----/15-15----/15-15----/15-15----/15-15----/15-15-----|
A#|-/17----17-/17----17-/17----17-/17----17-/17----17-/17----17--|
F#|--------------------------------------------------------------|
C#|--------------------------------------------------------------|
G#|--------------------------------------------------------------|
D#|--------------------------------------------------------------|

D#|-/14-14----/12-12---------------12--------12-12----12-12-----12----|
A#|-/15----15-/14----14--------12~----12h14-----12h14----12-12~----12\|
F#|----------------------12h13----------------------------------------|
C#|-------------------------------------------------------------------|
G#|-------------------------------------------------------------------|
D#|-------------------------------------------------------------------|

D#|-/15-15----/15-15----/15-15----/15-15----/15-15----/15-15----|
A#|-/17----17-/17----17-/17----17-/17----17-/17----17-/17----17-|
F#|-------------------------------------------------------------|
C#|-------------------------------------------------------------|
G#|-------------------------------------------------------------|
D#|-------------------------------------------------------------|

D#|-/15-15--------15-16-17\-------17\---17\------17\--17\--17\--|
A#|-/17----17-/17-17-18-19\---/19-19\---19\--/19-19\--19\--19\--|
F#|-------------------------------------------------------------|
C#|-------------------------------------------------------------|
G#|-------------------------------------------------------------|
D#|-------------------------------------------------------------|

D#|------0-------------0------0--0-0-----------0-0------|
A#|--------3p0-3/5-5~----3p0-/5--5-5-3p0-----0-0-0------|
F#|-2b3~---------------------------------2b3-------0h1--|
C#|-----------------------------------------------------|
G#|-----------------------------------------------------|
D#|-----------------------------------------------------|

D#|-----0---------0-3-0-5p0-3p0-5p0-3p0-5p0-7-7~--------------------|
A#|-------3~-0-5~---------------------------8-8~--------------------|
F#|-3/4------------------------------------------9p7---7h9---9p7----|
C#|--------------------------------------------------9-----------9--|
G#|-----------------------------------------------------------------|
D#|-----------------------------------------------------------------|

D#|-7-7~----------------------------------------------------------|
A#|-8-8~---------------------12-15p12-------12----15p12-------12--|
F#|-------9p7---7h9--14b16~~----------14b15-------------14b15-----|
C#|-----------9---------------------------------------------------|
G#|---------------------------------------------------------------|
D#|---------------------------------------------------------------|

D#|-------------------12-12--17b19-17b19-17-15---------|
A#|-15p12-------12-12-12-12--------------------17-17~--|
F#|-------14b15----------------------------------------|
C#|----------------------------------------------------|
G#|----------------------------------------------------|
D#|----------------------------------------------------|

D#|--------------------------------------------------------|
A#|-------12-12-15p12----12-14-12-14-------12-------12-----|
F#|-14b15-------------15-12-14-12-14-------12h13----12-----|
C#|----------------------------------14-14-------14----14--|
G#|--------------------------------------------------------|
D#|--------------------------------------------------------|

D#|------------------------------------------------|
A#|-14-12------------------------------12----------|
F#|-14-12h13--14-14p12----12h13p12-----12h13-------|
C#|--------------------14-----------14-------------|
G#|------------------------------------------14~---|
D#|------------------------------------------------|

[CHORUS, VERSE]
[SOLO 2/OUTRO]
D#|-/12-12----/12-12----/12-12----/12-12----/12-12----/12-12----|
A#|-/12----12-/12----12-/12----12-/12----12-/12----12-/12----12-|
F#|-------------------------------------------------------------|
C#|-------------------------------------------------------------|
G#|-------------------------------------------------------------|
D#|-------------------------------------------------------------|

D#|-/12-12----/12-12-------------12-----------------12----------------|
A#|-/12----12-/12----12-------12----15p12-------12-----15p12-------12-|
F#|---------------------14b15-------------14b15--------------14b15----|
C#|-------------------------------------------------------------------|
G#|-------------------------------------------------------------------|
D#|-------------------------------------------------------------------|

D#|-12-------------12----15b=18--15b17--15b17--15-12-12-|
A#|----15p12-15b17----12--------------------------------|
F#|-----------------------------------------------------|
C#|-----------------------------------------------------|
G#|-----------------------------------------------------|
D#|-----------------------------------------------------|

D#|-12----------------12-------15----17p15----17b19-17b19-17b19--|
A#|----15p12-------12----15/17----15-------15--------------------|
F#|----------14b15-----------------------------------------------|
C#|--------------------------------------------------------------|
G#|--------------------------------------------------------------|
D#|--------------------------------------------------------------|

D#|-17-15--------------15b16--15--15----------------15-----------|
A#|-------17~--17~--17---------------17~-15-17~--17----17~--17~--|
F#|--------------------------------------------------------------|
C#|--------------------------------------------------------------|
G#|--------------------------------------------------------------|
D#|--------------------------------------------------------------|

D#|-----------15~----17b19~--17b19r17--17b19r17--|
A#|-17~~~--17-----15-----------------------------|
F#|----------------------------------------------|
C#|----------------------------------------------|
G#|----------------------------------------------|
D#|----------------------------------------------|

D#|-17b19r17p15----15--15-------------------12------------------------------|
A#|-------------17--------17~--15-17~--17~-----15~--15-12~--12--------------|
F#|------------------------------------------------------------12h13p12-----|
C#|---------------------------------------------------------------------14~-|
G#|-------------------------------------------------------------------------|
D#|-------------------------------------------------------------------------|

D#|----------12-----------------------------------------|
A#|-------12----15-12----12---------14-12----12-12------|
F#|-14b15-------------14----12~~----14-12----12-12------|
C#|------------------------------14-------14-------14\--|
G#|-----------------------------------------------------|
D#|-----------------------------------------------------|

D#|---------12--------------------------------------------------------------|
A#|-15b17~~----15p12-------12-----------------------------------------------|
F#|------------------14b15----15\14p12----14----12h13-----------------------|
C#|------------------------------------14----14-------14p12-------------12~-|
G#|---------------------------------------------------------14-13-12\11-----|
D#|-------------------------------------------------------------------------|

************************************

| x    Dead note
| (n)  Ghost note
| h    Hammer-on
| p    Pull-off
| r    Release
| b    Bend
| /    Slide up
| \    Slide down
| ~    Vibrato
| o    reprise

************************************

            
            
Suggest correction
Creating personal tab
Creating personal tab
You can edit any tab online and save it as your Personal.

You can edit, replace or remove any tab part or add personal notes – all changes will be seen only by you.

Personal tabs can be accessed anytime from any device, even offline.
Learn more »
Give kudos to tab author, rate the tab!
1 2 3 4 5
comments
print report bad tab
guest
You may want to rate the tab now too:
select rating
Wanna post a correction for this tab? Suggest correction