Oops, an error
Loading. Please wait.
We have Chord Pro version of Mad World.
It's the closest thing you can get to the original song and it has interactive parts. Check out the tab »
×
28,220 views 6 this week
1 commentread comment
1 2 3 4 5
x 6
add to favorites
×
Save as Personal and add changes to this tab that will be seen only by you. Learn more ›
×
You can save this tab as Personal to edit and correct it or add notes. All changes will be seen only by you. Learn more »
launch autoscroll
font size
0
reset
how to read this tab
guitar tuner
backing track
0:00
0:00
edit
Autoscroll
slow
fast
+/-
esc
set tempo
stop
              this is a electric version of mad world. It sounds pretty cool with bass and drums



-------------------------------------------------|
-------------------------------------------------|
-------------------------------------------------|
-3--3--3--3--3--3--3--3---6--6--6--6--6--6--6--6-|
-3--3--3--3--3--3--3--3---6--6--6--6--6--6--6--6-|
-1--1--1--1--1--1--1--1---4--4--4--4--4--4--4--4-|

      all around me are familer faces


-------------------------------------------------------|
-4--4--4--4--4--4--4--4--------------------------------|
-3--3--3--3--3--3--3--3--3--3--3--3--3--3--3--3--------|
-1--1--1--1--1--1--1--1--3--3--3--3--3--3--3--3--------|
-------------------------1--1--1--1--1--1--1--1--------|
-------------------------------------------------------|

  worn out places         worn out faces

------------------------------------------------------|
------------------------------------------------------|
------------------------------------------------------|
-3--3--3--3--3--3--3--3---6--6--6--6--6--6--6--6------|
-3--3--3--3--3--3--3--3---6--6--6--6--6--6--6--6------|
-1--1--1--1--1--1--1--1---4--4--4--4--4--4--4--4------|


   bright and early for the daily races


----------------------------------------------------|
-4--4--4--4--4--4--4--4-----------------------------|
-3--3--3--3--3--3--3--3---3--3--3--3--3--3--3--3----|
-1--1--1--1--1--1--1--1---3--3--3--3--3--3--3--3----|
--------------------------1--1--1--1--1--1--1--1----|
----------------------------------------------------|


  going nowhere          going nowhere


-----------------------------------------------------|
-----------------------------------------------------|
-----------------------------------------------------|
-3--3--3--3--3--3--3--3--6--6--6--6--6--6--6--6--6---|
-3--3--3--3--3--3--3--3--6--6--6--6--6--6--6--6--6---|
-1--1--1--1--1--1--1--1--4--4--4--4--4--4--4--4--4---|


  their tears are filling up there glasses


----------------------------------------------------|
-4--4--4--4--4--4--4--4-----------------------------|
-3--3--3--3--3--3--3--3--3--3--3--3--3--3--3--------|
-1--1--1--1--1--1--1--1--3--3--3--3--3--3--3--------|
-------------------------1--1--1--1--1--1--1--------|
----------------------------------------------------|


    no expression    no expression


--------------------------------------------------|
--------------------------------------------------|
--------------------------------------------------|
--3--3--3--3--3--3--3--3--6--6--6--6--6--6--6--6--|
--3--3--3--3--3--3--3--3--6--6--6--6--6--6--6--6--|
--1--1--1--1--1--1--1--1--4--4--4--4--4--4--4--4--|


      hide my head i want t drown my sorrow

--------------------------------------------------|
--4--4--4--4--4--4--4--4--------------------------|
--3--3--3--3--3--3--3--3--3--3--3--3--3--3--3--3--|
--1--1--1--1--1--1--1--1--3--3--3--3--3--3--3--3--|
--------------------------1--1--1--1--1--1--1--1--|
--------------------------------------------------|


  no tomorrow  no  tomorrow


------------------------------------------------------|
------------------------------------------------------|
--------------------------3--3--3--3--3--3--3--3------|
--3--3--3--3--3--3--3--3--3--3--3--3--3--3--3--3------|
--3--3--3--3--3--3--3--3--1--1--1--1--1--1--1--1------|
--1--1--1--1--1--1--1--1------------------------------|

   and i find it kinda funny   i find it kind of  sad

--------------------------------------------------------|
--------------------------------------------------------|
--------------------------3--3--3--3--3--3--3--3--3-----|
--3--3--3--3--3--3--3--3--3--3--3--3--3--3--3--3--3-----|
--3--3--3--3--3--3--3--3--1--1--1--1--1--1--1--1--1-----|
--1--1--1--1--1--1--1--1--------------------------------|

the dreams in which i'm dying are the best i ever  had


---------------------------------------------------|
---------------------------------------------------|
--------------------------3--3--3--3--3--3--3--3---|
--3--3--3--3--3--3--3--3--3--3--3--3--3--3--3--3---|
--3--3--3--3--3--3--3--3--1--1--1--1--1--1--1--1---|
--1--1--1--1--1--1--1--1---------------------------|


   i find it hard to tell  you   i find it hard to take

-----------------------------------------------------|
-----------------------------------------------------|
--------------------------3--3--3--3--3--3--3--3-----|
--3--3--3--3--3--3--3--3--3--3--3--3--3--3--3--3-----|
--3--3--3--3--3--3--3--3--1--1--1--1--1--1--1--1-----|
--1--1--1--1--1--1--1--1-----------------------------|


  when people run in circles it's a very very

----------------------------------------------------|
----------------------------------------------------|
--------------------------3--3--3--3--3--3--3--3----|
--3--3--3--3--3--3--3--3--3--3--3--3--3--3--3--3----|
--3--3--3--3--3--3--3--3--1--1--1--1--1--1--1--1----|
--1--1--1--1--1--1--1--1----------------------------|

  mad  world           mad  world


     The song just repeats over once more.


    thats it Cono.

            
            
Suggest correction
Creating personal tab
Creating personal tab
You can edit any tab online and save it as your Personal.

You can edit, replace or remove any tab part or add personal notes – all changes will be seen only by you.

Personal tabs can be accessed anytime from any device, even offline.
Learn more »
comments
print report bad tab
1 comment total.
0 reply
Liam 1,995 Jan 27, 2007 03:17 AM

nice idea dude

guest
You may want to rate the tab now too:
select rating
Wanna post a correction for this tab? Suggest correction