Oops, an error
Loading. Please wait.

Cold Day In Hell bass

version 1
version 1

Whole song

Interactive

382 views 1 this week
no commentswrite comment
1 2 3 4 5
x 4
add to favorites
×
Save as Personal and add changes to this tab that will be seen only by you. Learn more ›
×
You can save this tab as Personal to edit and correct it or add notes. All changes will be seen only by you. Learn more »
launch autoscroll
font size
0
reset
guitar tuner
backing track
0:00
0:00
edit
Autoscroll
slow
fast
+/-
esc
set tempo
stop
Author
Difficulty
--------------------------------------------------------------------------
                                          Artist - Gary Moore
                                         *********************
                                        Song - Cold Day In Hell  
                                       *************************
                                      Album - After Hours (1992)
                                     ****************************
                                         Tabbed By - Ayreon77
                                        **********************
--------------------------------------------------------------------------
Tuning = Standard             



INTRO
******
G|-----s-|--------------------|--------------------|--------------------|--------------------|
D|----6\-|--------------------|--------------------|--------------------|--------------------|
A|-s-----|--------------------|--------------------|-4-4--4-4--4-4--4-4-|-4-4--4-4--4-4--4-4-|
E|-\8----|-5-5--5-5--5-5--5-5-|-5-5--5-5--5-5--5-5-|--------------------|--------------------|


G|--------------------|--------------------|---|-----4---------|------------------------|
D|--------------------|--------------------|---|-6-6---6-4-----|------------------------|
A|--------------------|--------------------|-4-|-----------7-4-|-0-0--0--2-2--2--3-3--3-|
E|-5-5--5-5--5-5--5-5-|-4-4--4-4--4-4--4-4-|---|---------------|------------------------|


------------------------
00:22
VERSE 1
********
So many times you tried to take the best of me
G|---|---4---4-6---|-------------|---4---4-6---|---4---4-6---|
D|---|-6---6-----4-|---2---2-4---|-6---6-------|-6---6-------|
A|-4-|-------------|-4---4-----4-|-----------4-|-----------4-|
E|---|-------------|-------------|-------------|-------------|

So many times, now you're gonna take the rest of me
G|---4---4-6---|-------------|-----4---4-6---|-----4---4-6-|
D|-6---6-----4-|---2---2-4---|-6-6---6-------|-6-6---6-----|
A|-------------|-4---4-----4-|-------------4-|-------------|
E|-------------|-------------|---------------|-------------|

Better look at what you're doing before it's too late
G|--------------------|--------------------|
D|-2-2--2-2--2-2--2-2-|-4-4--4-4--4-4--4-4-|
A|--------------------|--------------------|
E|--------------------|--------------------|

It's a fine line you're treadin' between love and hate
G|--------------------|-----------------|
D|--------------------|-----------------|
A|--------------------|-----------------|
E|-4-4--4-4--4-4--4-4-|-2----2--2---2-0-|

There'll be a cold day in hell...........
G|--------------|-----|---|-----4---4-6---|------------------------|
D|---2----------|-2---|---|-6-6---6-------|------------------------|
A|-4---4--------|---0-|-4-|-------------4-|-0-0--0--2-2--2--3-3--3-|
E|-------2-0--2-|-----|---|---------------|------------------------|


------------------------
01:00
VERSE 2
********
So many times you tried to play a dead end game
G|---|-----4---4-6---|-------------|-----4---4-6---|-----4---4-6---|
D|---|-6-6---6-----4-|---2---2-4---|-6-6---6-------|-6-6---6-------|
A|-4-|---------------|-4---4-----4-|-------------4-|-------------4-|
E|---|---------------|-------------|---------------|---------------|

I tried to tell you, but you'd never wanna take the blame
G|-----4---4-6---|-------------|-----4---4-6---|-----4---4-6-|
D|-6-6---6-----4-|---2---2-4---|-6-6---6-------|-6-6---6-----|
A|---------------|-4---4-----4-|-------------4-|-------------|
E|---------------|-------------|---------------|-------------|

Now you've pushed me to the limit, and I can't take no more
G|--------------------|--------------------|
D|-2-2--2-2--2-2--2-2-|-4-4--4-4--4-4--4-4-|
A|--------------------|--------------------|
E|--------------------|--------------------|

You'd better take one last look before I'm out the door
G|--------------------|------------------|
D|--------------------|------------------|
A|--------------------|-------------s----|
E|-4-4--4-4--4-4--4-4-|-2----2--2\10\--0-|

There'll be a cold day in hell...........
G|--------------|-----|---|-----4---4-6---|-----------------|
D|---2----------|-----|---|-6-6---6-------|---------2-------|
A|-4---4--------|-4-0-|-4-|-------------4-|-4-4-4-4---4-1-0-|
E|-------2-0--2-|-----|---|---------------|-----------------|


------------------------
01:39
BRIDGE
*******
You never listened when I told you  that you were way out of line
G|-----------|----------|----------|---6------6-|-6----------|
D|-4--2------|-4--2-----|----------|-6---6------|----6-------|
A|-------4-0-|------2-4-|----------|--------4---|------7-4-0-|
E|-----------|----------|----------|------------|------------|

Too busy talkin' to listen, accusing me of telling lies.
G|-----------|----------------|---------|------------------|
D|-4--2------|-4--2-----------|---------|--------------s---|
A|-------4-0-|------2-6-6-6-6-|-6-6-6-6-|-5---5---5---5\12-|
E|-----------|----------------|---------|------------------|


------------------------
01:58
SOLO 1
*******
G|---|-----4---4-6---|-------------|-----4---4-6---|-----4---4-6---|
D|---|-6-6---6-----4-|---2---2-4---|-6-6---6-------|-6-6---6-------|
A|-4-|---------------|-4---4-----4-|-------------4-|-------------4-|
E|---|---------------|-------------|---------------|---------------|


G|-----4---4-6---|-------------|-----4---4-6---|-----4---4-6-|
D|-6-6---6-----4-|---2---2-4---|-6-6---6-------|-6-6---6-----|
A|---------------|-4---4-----4-|-------------4-|-------------|
E|---------------|-------------|---------------|-------------|


G|--------------------|--------------------|
D|-2-2--2-2--2-2--2-2-|-4-4--4-4--4-4--4-4-|
A|--------------------|--------------------|
E|--------------------|--------------------|


G|--------------------|----------------s----|---------------------|-------4---4-6---|------------------------|
D|--------------------|----------------\6---|---2-----------------|---6-6---6-------|------------------------|
A|--------------------|------------s--------|-4---4-2-0------s----|-4-------------4-|-0-0--0--2-2--2--3-3--3-|
E|-4-4--4-4--4-4--4-4-|-2-2--2-2--2\8-----0-|-----------2-2-2\5-5-|-----------------|------------------------|


------------------------
02:36
VERSE 3
********
So many times you tried to get the best of me.   Yes, you did.
G|---|-----4---4-6---|-------------|-----4---4-6---|-----4---4-6---|
D|---|-6-6---6-----4-|---2---2-4---|-6-6---6-------|-6-6---6-------|
A|-4-|---------------|-4---4-----4-|-------------4-|-------------4-|
E|---|---------------|-------------|---------------|---------------|

So many times, but now you're gonna take the rest of me.
G|-----4---4-6---|-------------|-----4---4-6---|-----4---4-6-|
D|-6-6---6-----4-|---2---2-4---|-6-6---6-------|-6-6---6-----|
A|---------------|-4---4-----4-|-------------4-|-------------|
E|---------------|-------------|---------------|-------------|

Well, it's too late for sorry and it's too late for tears.
G|--------------------|--------------------|
D|-2-2--2-2--2-2--2-2-|-4-4--4-4--4-4--4-4-|
A|--------------------|--------------------|
E|--------------------|--------------------|

Better take one last look before I disappear.
G|--------------------|------------------|
D|--------------------|------------------|
A|--------------------|-------------s----|
E|-4-4--4-4--4-4--4-4-|-2----2--2\10\--0-|

There'll be a cold day in hell....          There'll be a cold day in hell............            
G|------------------|---|-----4---4-6---|-----4---6-4---|--------------------|------------|
D|---2--------------|---|-6-6---6-------|-6-6---6-----6-|-2-2--2-2--2-2--2-2-|-4-4--4-4---|
A|-4---4-2-0------0-|-4-|-------------4-|---------------|--------------------|------------|
E|-----------2--2---|---|---------------|---------------|--------------------|----------5-|


03:19                    There'll be a cold day in hell  before I'm coming back to you
G|---|-----4---4-6---|-----4---6-4---|--------------------|----------|----4--6-|
D|---|-6-6---6-------|-6-6---6-----6-|-2-2--2-2--2-2--2-2-|-4-4--4-4-|-6-------|
A|-4-|-------------4-|---------------|--------------------|----------|---------|
E|---|---------------|---------------|--------------------|----------|---------|


G|-----4---4-6---|-----4---4-6---|
D|-6-6---6-------|-6-6---6-------|
A|-------------4-|-------------4-|
E|---------------|---------------|


------------------------
03:34
SOLO 2
******* Gonna Be A Cold Day In Hell. Gonna Be A Cold Day In Hell.
G|-----4---4-6---|-------------|-----4---4-6---|-----4---4-6---|
D|-6-6---6-----4-|---2---2-4---|-6-6---6-------|-6-6---6-------|
A|---------------|-4---4-----4-|-------------4-|-------------4-|
E|---------------|-------------|---------------|---------------|

Gonna Be A Cold Day In Hell. Gonna Be A Cold Day In Hell. 
G|-----4---4-6---|-------------|-----4---4-6---|-----4---4-6-|
D|-6-6---6-----4-|---2---2-4---|-6-6---6-------|-6-6---6-----|
A|---------------|-4---4-----4-|-------------4-|-------------|
E|---------------|-------------|---------------|-------------|

Gonna Be A Cold Day In Hell. Gonna Be A Cold Day In Hell.
G|---|-----4---4-6---|-------------|-----4---4-6---|-----4---4-6---|
D|---|-6-6---6-----4-|---2---2-4---|-6-6---6-------|-6-6---6-------|
A|-4-|---------------|-4---4-----4-|-------------4-|-------------4-|
E|---|---------------|-------------|---------------|---------------|

Gonna Be A Cold Day In Hell. Gonna Be A Cold Day In Hell.
G|-----4---4-6---|-------------|-----4---4-6---|-----4---4-6-|
D|-6-6---6-----4-|---2---2-4---|-6-6---6-------|-6-6---6-----|Fade
A|---------------|-4---4-----4-|-------------4-|-------------|   Out.....
E|---------------|-------------|---------------|-------------|



ENJOY.......
Suggest correction
Creating personal tab
Creating personal tab
You can edit any tab online and save it as your Personal.

You can edit, replace or remove any tab part or add personal notes – all changes will be seen only by you.

Personal tabs can be accessed anytime from any device, even offline.
Learn more »
comments
print report bad tab
guest
You may want to rate the tab now too:
select rating
Wanna post a correction for this tab? Suggest correction