Oops, an error
Loading. Please wait.

Still Got The Blues Tab

version 1
version 1
282,529 views 588 this week
1 commentread comment
1 2 3 4 5
accurate
x 13
add to favorites
launch autoscroll
font size
0
reset
how to read this tab
guitar tuner
Autoscroll
slow
fast
+/-
esc
set tempo
stop
Help us to improve Ultimate-Guitar.com Take our survey!
×
Still Got The Blues
  by
Gary Moore

 in 6/8 time which is 2 triplets per measure.


[Chords]
  Dm7   Dm7/G   Cmaj7   Fmaj7   Bm7b5   D9   F9   E7#9  Bm7  Em7
e|-1------1-------0-------0-------1----------------------2----0-|
B|-1------1-------0-------1-------3------5---8------8----3----0-|
G|-2------2-------0-------2-------2------5---8------7----2----0-|
D|-0------0-------2-------3--------------4---7------6----4----0-|
A|----------------3---------------2------5---8------7----2----2-|
E|--------3---------------------------------------------------0-|


[Intro and verse progression]

 Dm7                  Dm7/G              Cmaj7              Fmaj7
e|----------1-------|----------1-------|----------0-------|----------0-------|
B|-------1-----1----|-------1-----1----|-------0-----0----|-------1-----1----|
G|----2-----------2-|----2-----------2-|----0-----------0-|----2-----------2-|
D|-0----------------|------------------|------------------|-3----------------|
A|------------------|------------------|-3----------------|------------------|
E|------------------|-3----------------|------------------|------------------|
  |__|__|  |__|__|   |__|__|  |__|__| etc.

 Bm7b5               E7                  Am
e|----------1-------|----------0-------|------------------|---------------|
B|-------3-----3----|-------0-----0----|----------1-------|---------------|
G|----2-----------2-|----1-----------1-|-------2-----2----|---------------|
D|------------------|------------------|----2-----------2-|---------------|
A|-2----------------|------------------|-0----------------|-0----------7--|
E|------------------|-0----------------|------------------|-------5--8----|


[Chorus]

           ("So long, it was so long ago......")
|Am      |Em    |Am    |D9    |F9    |E7#9    |Am    |      |


[Bridge]

|Bm7    |Bm/E   |Am  Am/B  |Am/C   |Bm7    |Bm7/E   |Fmaj7  Em7  |Dm7   |Am   |
|       |


[Lead riff]

  Here is the lead riff you hear for the intro and repeated with slight changes
  throughout. Listen to the record for the timing. 17b18 means bend the 17th fret
  to the 18th fret.  18r17 means release the bend from the 18th to the 17th fret.
               Dm7                      Dm7/G              Cmaj7
e|-----------|------------------------|------------------|--------------------|
B|----15--17-|-17b18--------18r17--17-|-15--------13--15-|-15b17------15b17---|
G|-14--------|------------------------|------------------|--------------------|
D|-----------|------------------------|------------------|--------------------|
A|-----------|------------------------|------------------|--------------------|
E|-----------|------------------------|------------------|--------------------|

 Fmaj7                 Bm7b5                 E7                 Am
e|--------------------|--------------------|------------------|---------------|
B|-13------10--12--13-|-13b15-------13b15--|-12--------10-----|---------------|
G|--------------------|--------------------|---------------12-|-12b14---------|
D|--------------------|--------------------|------------------|---------------|
A|--------------------|--------------------|------------------|---------------|
E|--------------------|--------------------|------------------|---------------|


e|--------------|
B|--------------|
G|-(12)-----\---|
D|--------------|
A|--------------|
E|--------------|


[Lyrics]

Dm7           F/G  Cmaj7             Fmaj7
Used to be so easy to give my heart away
Bm7b5                        E   Am   Bmadd4         Am/C     Am
But I've found that the hard way is a price you have to pay
Dm7          F/G  Cmaj7            Fmaj7
I found that love was no friend of mine
Bm7b5               Esus4      E
I should have known time after time

   Am Em           Am      Dadd2
   So long, it was so long ago
            F7/9          E7#9      Am
   But I've still got the blues for you


Used to be so easy to fall in love again
I've found that the hard way, it's a way that leads to pain
I've found that love was more than just a game
To play and to win but to lose just the same

   So long, it was so long ago
   But I've still got the blues for you


Bm7     E     Am7        Bm7       C
So many years since I've seen your face
Bm7           E                 Fmaj7 Cadd2 Fmaj7
And now in my heart, there's an empty space
            Am
You used to be

   Am Em           Am      Dadd2
   So long, it was so long ago
            F7/9          E7#9      Am    Em
   But I've still got the blues for you
              Am            Em          Am          Dadd2
   Though the days come and go, there's one thing I know
        F7/9          E7#9      Am
   I've still got the blues for you


************************************

| (n)  Ghost note
| r    Release
| b    Bend
| \    Slide down

************************************
Suggest correction
comments
print report bad tab
1 comment total.
0 reply
IAmHandMadeGod 50 wrote on August 16 2002, 12:00 am

is it just me, or do the chords on the second version here look a bit ... what's the word... impossible to play!!!!

guest
You may want to rate the tab now too:
select rating
Please do not post tabs as comments. Select "correction" instead!