Oops, an error
Loading. Please wait.
We have an official Still Got The Blues tab made by UG professional guitarists. Check out the tab »
×

Still Got The Blues tab

88 views 6 this week
no commentswrite comment
1 2 3 4 5
3 more votes to show rating
add to favorites
×
Save as Personal and add changes to this tab that will be seen only by you. Learn more ›
×
You can save this tab as Personal to edit and correct it or add notes. All changes will be seen only by you. Learn more »
launch autoscroll
font size
0
reset
how to read this tab
guitar tuner
backing track
0:00
0:00
edit
Autoscroll
slow
fast
+/-
esc
set tempo
stop
About this tab version
I have changed two of the runs in the second solo which occur at around 4:45 of the song. Was this info helpful? Yes No
************************************************************
song: STILL GOT THE BLUES  1990, UK                  
Artist: Moore G.                                     
tabbed by: fiend'spainmaze (Segovia) from Mexico     
Standard tuning                                      
comments: I've tabbed only the lead guitar, but the  
tab of  the 1st verse and chorus is the guitar II     
(acoustic). this tab isn't exact, time is obviously  
wrong. if you have the record, will be easier to play. 
you can improvise the way to play this tab, like the 
artist do in his performances. this song is simple,  
but in some parts is fast, just practice. so don't be
afraid to the sound complicated of the record. this  
is my first tab, I hope you like and enjoy playing   
like I do. please, correct me if I'm wrong, or if you
have comments, mail me.                                       

E-mail: bloody_shrine@yahoo.com


Originally tabbed by fiend'spainmaze (Segovia) from Mexico.

I went through a few bars in the outro solo while watching a live performance of this song on Youtube. 
Therewere two or three small sections that didn't seem right. I might be off a bit but it looks like 
he was playing Aminor penatonic with a couple off scale notes. But like 98% of the oringial was right 
so I left all of that. 


Edited by: Tyler Moreau; tmoreau15.


[Intro]

lead guitar
w. distortion
 
              )1/2  )1/2_
             /     /     )
E|------------------------------------------|
B|----15-17-17----17------17-15vvvvvvv15/---|
G|-14---------------------------------------|
D|------------------------------------------|
A|------------------------------------------|
E|------------------------------------------|
            
          )f    )f_
         /     /   )
E|------------------------------------------|
B|-13-15-15----15---15--13vvvvvvvv13/-------|
G|------------------------------------------|
D|------------------------------------------|
A|------------------------------------------|
E|------------------------------------------|

              )f    )f_                         )1/2
             /     /   )                       /
E|---------------------------------------------------10/--|
B|-10-12-13—13----13---13--12vvvvvvv-10--------------10/--|
G|---------------------------------------12--12------10/--|
D|--------------------------------------------------------|
A|--------------------------------------------------------|
E|--------------------------------------------------------|


[VERSE 1]

Guitar II 
No dist. 

(*1)________________________________________________________|
E|---------|-----1-----------1-----------0------------0-----|| 
B|---------|---1---1-------1---1-------0---0--------1---1---||
G|---------|-2-------2---2-------2---0-------0----2-------2-||
D|-----2-0-|------------------------------------3-----------||
A|-0-3-----|-----------------------3------------------------||
E|---------|-----------3------------------------------------||

e|--------1--------------0-------------------------------|
b|------3---3----------0---0----------1-------1-------1--|
g|----2-------2------1-------1------2-------2-------2----|
d|-------------------------------------------------------|
a|--2-----------------------------0-------2-------3------|
e|----------------0--------------------------------------|

repeat (*1) and play this:

E|--------1--------------1-------------|----|
B|------3---3----------3---3-----------|----|
G|----2-------2------2-------2---------|----|
D|-------------------------------------|----|
A|--2--------------2-------------------|-2--|
E|-------------------------------------|-0--|(X13)
                                       |_________|

[Chorus 1]

play this chords:

E|--5--7--5--7--8---7------|
B|--5--8--5--8--10--9------|
G|--5--7--5--7--8---7------|
D|--7--9--7--9--10--9---7--|
A|--7--7--7--7--8---7---7--|
E|--5--7--5--7--8---7---5--|


[Verse 2]

Lead guitar with distortion
                                                            )1/2
                                                           /  )
E|-------------------------3-3vvv------------------5--------------|
B|---------------------3/5-----------------------------8----------|
G|--------------------------------------------------------7---7-5-|
D|---------------------------------------------------------------7|
A|----------------------------------------------------------------|
E|----------------------------------------------------------------|
   used to be so easy          ..to fall in love again        but

                        )1/2                        1/2 )1/2
                       /    )                      /   / )
E|----------------------------------------------------------------|
B|-------------------------------------------------8--------------|
G|---------------------7-----7--5---------------------7--5h7p5----|
D|------------------6--------------7---------------------------7--|
A|----------------------------------------------------------------|
E|----------------------------------------------------------------|
  I found in the hard way  it's a road that leads to pain, i found

that love was more than

                    )1/2                                     )f  )f
                   /                                        /   /
E|-----------------------------------10---------------------------|
B|----------10-14-14--------------------10h13p10-----------15--15/|
G|------------------------------------------------13--------------|
D|----------------------------------------------------------------|
A|----------------------------------------------------------------|
E|----------------------------------------------------------------|
  just a game,  you're playin' to win, but you'll lose just same


[Chorus 2]

guitar II, the same chords like the chorus 1.

lead guitar chorus 2 end:

                         )1/2___
                        /       )
E|------------------------------------------------|
B|------------------------------------------------|
G|----------------------7-------7----5------------|
D|-------------------------------------7-7-7------|
A|------------------------------------------------|
E|------------------------------------------------|
 got the blues for you...


[Bridge] 

lead guitar.

       )f___               )f   )f__
      /     )             /    /    )
E|-----------------------------------------------------------------------------|
B|---13-----13----10-----13---13----13vvvvvvvvvvv/-----------------------------|
G|-----------------------------------------------------------------------------|
D|-----------------------------------------------------------------------------|
A|-----------------------------------------------------------------------------|
E|-----------------------------------------------------------------------------|
 face...                                                             ...to be 


[Solo 1] 

lead guitar: 

               )1/2  )1/2_
              /     /     )
E|------------------------------------------|
B|----15-17-17----17------17-15vvvvvvv15/---|
G|-14---------------------------------------|
D|------------------------------------------|
A|------------------------------------------|
E|------------------------------------------|
            
           )f    )f_
          /     /   )
E|------------------------------------------|
B|-13-15-15----15---15--13vvvvvvvv13/-------|
G|------------------------------------------|
D|------------------------------------------|
A|------------------------------------------|
E|------------------------------------------|

                  )f  )f__
                 /   /    )
e|--------------------------------------------------------------|
B|--10--12--13--13--13----13--12vvv--10------10v-12v-13vvvv/----|
G|---------------------------------------12---------------------|
D|--------------------------------------------------------------|
A|--------------------------------------------------------------|
E|--------------------------------------------------------------|

               )1/2  )1/2_          )1/2_
              /     /     )        /     )
E|----------------------------15-------------------------|
B|----15-17-17----17------17------17----17---15v/--------|
G|-14--------------------------------------------------12|
D|-------------------------------------------------------|
A|-------------------------------------------------------|
E|-------------------------------------------------------|
            
           )f    )f_         )f__
          /     /   )       /    )
E|---------------------13-------------------|
B|-13-15-15----15---15-----15----15--13vv/--|
G|------------------------------------------|
D|------------------------------------------|
A|------------------------------------------|
E|------------------------------------------|

                  )f  )f__           )f    )f__
                 /   /    )         /     /    )
e|-------------------------------------------------10-----------|
B|--10--12--13--13--13----13--10---13----13----13v----13--10----|
G|--------------------------------------------------------------|
D|--------------------------------------------------------------|
A|--------------------------------------------------------------|
E|--------------------------------------------------------------|

  (very fast)
e|20fb20b--17---------------------------------------------------17-------------|
B|-----------20-17----------17-------------------------------17----17--19-17-17|
G|-----------------19fb--------19fb------17----19-----17--19b---------------19-|
D|------------------------------------------19-----19--------------------------|
A|-----------------------------------------------------------------------------|
E|-----------------------------------------------------------------------------|


e|----------------------------------|
B|----------------------------------|
G|--19fb-17-19----17--19--19fbvvvvv-|
D|-------------19-------------------|
A|----------------------------------|
E|----------------------------------|


[Chorus 3]

so long...etc. though... etc.


[Solo 2] 

lead guitar: 
               )1/2  )1/2_
              /     /     )
E|------------------------------------------|
B|----15-17-17----17------17-15vvvvvvv15/---|
G|-14---------------------------------------|
D|------------------------------------------|
A|------------------------------------------|
E|------------------------------------------|            
           )f    )f_
          /     /   )
E|------------------------------------------|
B|-13-15-15----15---15--13vvvvvvvv13/-------|
G|------------------------------------------|
D|------------------------------------------|
A|------------------------------------------|
E|------------------------------------------|

e|-------------------------|
B|-10--12--12b-13fb-15fbv/-|
G|-------------------------|
D|-------------------------|
A|-------------------------|
E|-------------------------|

               )1/2______
              /          )
E|------------------------------------------------|
B|----15-17-17-----------17--15vvvvvvv15/---------|
G|-14------------------------------------------12-|
D|------------------------------------------------|
A|------------------------------------------------|
E|------------------------------------------------|     

           )f    )f_         )f__
          /     /   )       /    )
E|------------------------------------------|
B|-13-15-15----15---15-16--15----15--13vv/--|
G|------------------------------------------|
D|------------------------------------------|
A|------------------------------------------|
E|------------------------------------------|

               )f    )f_                       )1/2      )1/2
              /     /   )                     /         /
E|----------------------------------------------|------------|
B|-10-12-13—13----13---13--12vvvvvvv-10---------|10-10-------|
G|---------------------------------------12--12-|------12----|
D|----------------------------------------------|------------|
A|----------------------------------------------|------------|(many times
E|----------------------------------------------|------------|and fast)
                                                |________________________|

                              )f_____
                             /       )
E|--------10--12-12b12fb-12-12------12--15------------------------------|
B|-10--13----------------------------------15b-15b---13-15----13-15x----|
G|---------------------------------------------------------14-----------|
D|----------------------------------------------------------------------|
A|----------------------------------------------------------------------|
E|----------------------------------------------------------------------|


e|-------10-12fbrp10---10-------------------------------------------------------------------------|
B|10-13b-------------13--13-10h13p10----10--------------------------------------------------------|
G|-----------------------------------12----12-9h12p9----9--------------9--------------------------|
D|---------------------------------------------------12---12--10h12p10---12-10-12/14-12-10-12-10-9|
A|------------------------------------------------------------------------------------------------|
E|------------------------------------------------------------------------------------------------|

                                        )f__
                                       /    )
e|-------------------------------|----------------------------------------------------------------|
B|-------------------------------|------------------------------------------------8-5h8p5h8p5h8p5-|
G|-------------------------------|---------------------------------7-5h7p5h7p5h7p5-7--------------|
D|--7vvvv------------------------|--------------3s7v--5h7p5h7p5h7p5-7-----------------------------|
A|-------------5vvvv-------------|-0--3--5---(5)--------------------------------------------------|
E|----------------------0h3fb/---|----------------------------------------------------------------|
                   pinch if you want

e|-5---5--7b--5--------------------15fb---------------------------|
b|---8----------8--5--8/10/13------15fb---15fb---13-15fb-15fb-----|
g|----------------------------------------------------------------|
d|----------------------------------------------------------------|
a|----------------------------------------------------------------|
e|----------------------------------------------------------------|

E|----10----10-12p10-13p10-12p10-----10----------------------------------------|
B|-13----13-----------------------13----13-12-10-9-12-10-9-10------------------|
G|-------------------------------------------------------------9/7--7h9p7------|
D|-----------------------------------------------------------------------10-9-7|
A|-----------------------------------------------------------------------------|
E|-----------------------------------------------------------------------------|

                                                             )f )f )f )f )f )f )
                                                            /  /  /  /  /  /  /
E|-----------17----------------------------------------17--20-20-20-20-20-20-20|
B|-------20fb---20-17------17------------------17--19--------------------------|
G|--------------------19fb-----19fb-17------19---------------------------------|
D|---/19---------------------------------19------------------------------------|
A|-----------------------------------------------------------------------------|
E|-----------------------------------------------------------------------------|


E|-17h20--17h19p17-------------------------------------------------------------|
B|-----------------20b-20--17h19p17----17--------------------------------------|
G|----------------------------------19----19-17----19----17-19-20-19-17---19-19|
D|----------------------------------------------19----19-----------------------|
A|-----------------------------------------------------------------------------|
E|-----------------------------------------------------------------------------|


                   )f__                 )f___
                  /    )               /     )
E|---------------------------------------------|             
B|-----------------------17h20p17--------------|
G|-19-17------17-19----19-------------19-----19|
D|---------------------------------------------|
A|---------------------------------------------|
E|---------------------------------------------|(x6)
                |__________________________________|


      )f )f )f )f )f )f )f__
     /  /  /  /  /  /  /    )
E|--22-22-22-22-22-22-22----22----19-17-19----17-------------------------------|
B|-----------------------------------------20----20-17--17---------------------|
G|----------------------------------------------------19-----19----------------|
D|--------------------------------------------------------19------17-----------|
A|--------------------------------------------------------------19---19-17-15--|
E|---------------------------------------------------------------------------17|

                                )f 
                               /
E|----------------------------|20----|(x6)  |-20-17-20-20fb-17v-17---|
B|----------------------------|------|      |------------------------|
G|----------------------------|------|      |------------------------|
D|----------------------------|------|      |------------------------|
A|-17---15-17--17fb--17-15-19-|------|      |------------------------|
E|---17-----------------------|------|      |------------------------|
                              |_____________|
(harmonics)
       )f
      /
E|---22vvvvvvvvvvvvvvvvvvvvvvvvvvvvvvvvvvvvvv|
B|-------------------------------------------|
G|-------------------------------------------|
D|-------------------------------------------|
A|-------------------------------------------|
E|-------------------------------------------|

               )1/2  )1/2_
              /     /     )
E|------------------------------------------|
B|----15-17-17----17------17-15vvvvvvv15/---|
G|-14---------------------------------------|
D|------------------------------------------|
A|------------------------------------------|
E|------------------------------------------|
          
           )f    )f_
          /     /   )
E|------------------------------------------|
B|-13-15-15----15---15--13vvvvvvvv13/-------|
G|------------------------------------------|
D|------------------------------------------|
A|------------------------------------------|
E|------------------------------------------|

                  )f  )f__
                 /   /    )
e|--------------------------------------------------------------|
B|--10--12--13--13--13----13--12vvv--10------10v-12v-13vvvv/----|
G|---------------------------------------12---------------------|
D|--------------------------------------------------------------|
A|--------------------------------------------------------------|
E|--------------------------------------------------------------|

               )1/2______
              /          )
E|------------------------------------------------|
B|----15-17-17-----------17--15vvvvvvv15/---------|
G|-14---------------------------------------------|
D|--------------------------------------------12--|
A|------------------------------------------------|
E|------------------------------------------------|     

           )f    )f_         
          /     /   )       
E|-----------13-----------------------------|
B|-13-15-15----15---15---13vv/--------------|
G|------------------------------------------|
D|------------------------------------------|
A|------------------------------------------|
E|------------------------------------------|
               )f    )f_                           )f____________
              /     /   )                         /              ) 
E|----------------------------------------------------------------|
B|-10-12-13—13----13---13--12vvvvvvv-10v----------8--------------8|
G|---------------------------------------10v----------------------|
D|----------------------------------------------------------------|
A|----------------------------------------------------------------|
E|----------------------------------------------------------------|


[Outro]

e|---8--5h8p5--------------------------------------------5---------------------|
b|-------------8--5h8p5---------------------------5---8-----8---5--------------|
g|-----------------------7--5h7p5----7------5---7------------------8--7--5-----|
d|--------------------------------7-----7--------------------------------------|
a|-----------------------------------------------------------------------------|
e|-----------------------------------------------------------------------------|


E|---------------------------------------------------------|
B|---------------------------------------------------------|
G|----7----5-----------------------------------------------|
D|--7---7-----7---5----------------------------------------|
A|-------------------7---5---------------2vvvvvvvvvvvv-----|
E|--------------------------7---5----------------------5v--|


************************************************************

p - pull off
h - hammer on
/ - slide down to 0
v - vibrato
x - mute string
b - bend
fb- full bend
½ - midfull
f - full

************************************************************

            
            
Suggest correction
Creating personal tab
Creating personal tab
You can edit any tab online and save it as your Personal.

You can edit, replace or remove any tab part or add personal notes – all changes will be seen only by you.

Personal tabs can be accessed anytime from any device, even offline.
Learn more »
Give kudos to tab author, rate the tab!
1 2 3 4 5
comments
print report bad tab
guest
You may want to rate the tab now too:
select rating
Wanna post a correction for this tab? Suggest correction