Oops, an error
Loading. Please wait.

The Loner Tab

version 1
version 1

Whole song

Interactive

120,345 views 399 this week
1 commentread comment
1 2 3 4 5
excellent!
x 10
add to favorites
launch autoscroll
font size
0
reset
how to read this tab
guitar tuner
Autoscroll
slow
fast
+/-
esc
set tempo
stop
Help us to improve Ultimate-Guitar.com Take our survey!
×
NOTE:
Don't strike any notes in () unless noted otherwise.


[Intro]

e|---------------17----------17----------15--------------15-----------------|
B|--------15----------------------------------------------------------------|
G|------15--16b(18)-17b(18)17~--15b(16)15~--12-12-14b(16)~--14b(15)r(14)----|
D|----17--------------------------------------------------------------------|
A|--------------------------------------------------------------------------|
E|--------------------------------------------------------------------------|

             *pick 
e|---------13------12-----------12------------------------------------------|
B|----------------------------------------15--------------------------------|
G|--14b(15)~-*r(14)~-9-9-11b(13)~-11-12h13~---15b(17)-14-12-----------------|
D|-------------------------------------w--------------------12~-------------|
A|--------------------------------------------------------------------------|
E|--------------------------------------------------------------------------|


[Main Theme]

e|--------------------------------------------------------------------------|
B|--------------------------------------------------------------------------|
G|--------------------------------------------------------------------------|
D|---5-7-7b(8)-----7b(8)----3-5-5\(7)--------5-3-5-----5~--5-7-7b(8)r(7)-5--|
A|-5----------5\(6)-------3----------3\(5)-1-------1-0----------------------|
E|--------------------------------------------------w-----------------------|

e|--------------------------------------------------------------------------|
B|--------------------------------------------------------------------------|
G|---------5b(7)r(5)-3h2------------5b(7)r(5)p3-h2-5------------------------|
D|-5\(7)~--------------w--5-3---5~---------------w-5-3-5~--5b(off)----------|
A|---------------------------h5--------------------5------------------------|
E|----------------------------w---------------------------------------------|

e|--------------------------------------------------------------------3~----|
B|---8-10-10b(11)~------11~---6-8-8b(9)r(8)---------4-6-6b(7)r(6)-----------|
G|-7---------------7h8------5--------------5\(7)~-3--------------3/(2)------|
D|------------------w-------------------------------------------------------|
A|--------------------------------------------------------------------------|
E|--------------------------------------------------------------------------|

e|--3-5-5b(6)r(5)-3-3\(5)~--------------------------------------------------|
B|-------------------------------8-10-10b(11)---------10~----6-8b(10)r(8)---|
G|--------------------------6b(7)------------5b(6)r(5)~---h5----w-----------|
D|---------------------------------------------------------w----------------|
A|--------------------------------------------------------------------------|
E|--------------------------------------------------------------------------|

e|----------------------------------3-3-5-5b(6)r(5)-3-9b(11)---8b(9)r8------|
B|--------------------4-6-b(7)-----------------------------------------11-10|
G|-h5p(3)~--h3p(2)h(3)---w-----3p(2)~---------------------------------------|
D|--w--------w------------------w-------------------------------------------|
A|--------------------------------------------------------------------------|
E|--------------------------------------------------------------------------|

e|-----------------------------9-9b(10)r(9)-----------------10-11-13-10b(11)|
B|-8----------------------8-11--------------11-10-8----8--------------------|
G|---10---------------------------------------------10----------------------|
D|------10b(11)r(10)p(8)-------------------------------w--------------------|
A|----------------------10--------------------------------------------------|
E|--------------------------------------------------------------------------|

e|r(10)---------------------------------------------------------------------|
B|------13-11-13b(14)r(13)-11h13p11\(10)-8-10-10b(11)r(10)-8----------------|
G|-----------------------------------------------------------10-8-7---------|
D|------------------------------------------------------------------10------|
A|---------------------------------------------------------------------10---|
E|--------------------------------------------------------------------------|

e|----------------------------10-11-13-10b(11)r(10)-------------------------|
B|--------------------------------------------------13~-11-13-13b(14)r(13)--|
G|--------------------------------------------------------------------------|
D|-8---10b(11)-10b(11)r(10)~------------------------------------------------|
A|---10---------------------------------------------------------------------|
E|--------------------------------------------------------------------------|

e|------------------------------------13b(14)~-17p15p14-15-15b(16)-15b(16)--|
B|-11h13p11\(10)------------------------------------------------------------|
G|--------------12-14-14b(15)r(14)-12---------------------------------------|
D|--------------------------------------------------------------------------|
A|--------------------------------------------------------------------------|
E|--------------------------------------------------------------------------|

e|-15b(16)r(15)---------15-17-17b(18)------------17----13-15-17-------------|
B|--------------14b(15)--------------13b(14)r(13)---13----------------------|
G|--------------------------------------------------------------15b(16)r15~-|
D|--------------------------------------------------------------------------|
A|--------------------------------------------------------------------------|
E|--------------------------------------------------------------------------|

e|--------------------------------------------15-15-17-17b(18)-19b(20)-20b(21)|
B|------------------16-18-18b(19)---------------------------------------------|
G|-15h17p15\(14)-15---------------14b(15)r(14)~-------------------------------|
D|----------------------------------------------------------------------------|
A|----------------------------------------------------------------------------|
E|----------------------------------------------------------------------------|

e|-21b(22)~--20b(21)r(20)-18-17-------------20b(22)r(20)-18-17--------------|
B|------------------------------20-18---20~--------------------20-18\(20)~--|
G|-----------------------------------h19----------------------------w-------|
D|-------------------------------------w------------------------------------|
A|--------------------------------------------------------------------------|
E|--------------------------------------------------------------------------|

  (this is a quick blues fill, not exact!!) 
e|-15-----------------------------------------------------------------------|
B|---18p15-------15-18-15---------------------------------------------------|
G|--------17b(18)---------17-15---15h17-17b(18)r(17)-15---------------------|
D|------------------------------17---------------------17-15h(17)-17-15/(0)-|
A|--------------------------------------------------------------------------|
E|--------------------------------------------------------------------------|

e|-20b(21)r20-18-17------------------------------------20b(21)r20-18-17-------|
B|--------------------20-18--------------------------------------------18b(19)|
G|--------------------------17b(19)r(17)-----0h3-----/(0)---------------------|
D|---------------------------------------17~--w-wwwww-------------------------|
A|----------------------------------------------------------------------------|
E|----------------------------------------------------------------------------|

e|-----|-------------|-------------------------------------------------------|
B|-----|--6----------|-------------------------------------------8-10-10b(11)|
G|-----|5---5b(6)r(5)|-----------5b(6)r(5)-5b(6)-----------------------------|
D|-----|-------------|--5-7-7b(8)----------------8-5-5~---10b(11)------------|
A|-----|-------------|-5-----------------------------------------------------|
E|-----|-------------|-------------------------------------------------------|


e|-----------------------|---------------------------------------------------|
B|--------------8b(9)r(8)|------10b(11)~------11b(12)~---11-11-11-----11-----|
G|-----------------------|-10-12---------10-12---------12--------12-10--12p10|
D|-10b(11)r(10)~---------|---------------------------------------------------|
A|-----------------------|---------------------------------------------------|
E|-----------------------|---------------------------------------------------|

   (missed)                       (pick these notes)
e|-------------|--------12b(13)~(13)(13)(13)(13)r(12)----------------------|
B|-------------|-----------------------------------------------------------|
G|-------------|-11b(12)~---------------------------12-10h(12)h(15)--------|
D|-------------|-----------------------------------------------w-----------|
A|-------------|-----------------------------------------------------------|
E|-------------|-----------------------------------------------------------|

e|--------------------------------------------------------------------------|
B|-------------15-18-18b(19)~------------15-18-20b(21)----------------------|
G|--------15-17--------------------15-17------------------------------------|
D|--15-17---------------------15-17-----------------------------------------|
A|--------------------------------------------------------------------------|
E|--------------------------------------------------------------------------|


***************************************

|h   hammer on
|w   quick pop with vib/bar
|~   let ring
|/   slide towards nut
|\   slide towards bridge
|b   bend 

***************************************
Suggest correction
comments
print report bad tab
1 comment total.
0 reply
##_Guitar-newb 30 wrote on October 10 2004, 12:00 am

not too shabby!! nice tab

guest
You may want to rate the tab now too:
select rating
Please do not post tabs as comments. Select "correction" instead!