Oops, an error
Loading. Please wait.
We have an official The Loner tab made by UG professional guitarists. Check out the tab »
×

The Loner tab

version 5
version 5

Whole song

Interactive

286 views 1 this week
1 commentread comment
1 2 3 4 5
3 more votes to show rating
add to favorites
×
Save as Personal and add changes to this tab that will be seen only by you. Learn more ›
×
You can save this tab as Personal to edit and correct it or add notes. All changes will be seen only by you. Learn more »
launch autoscroll
font size
0
reset
how to read this tab
guitar tuner
backing track
0:00
0:00
edit
Autoscroll
slow
fast
+/-
esc
set tempo
stop
Author
About this tab version
I am going to give out 3 tabs according to this song, this being the first of them. the two others i will be making soon, but until then I hope you all enjoy my tab for Gary Moore's Loner (part one), there may be some places you have to add some vibrato yourself that i have not put in, but this is basically how the song should sound. Was this info helpful? Yes No
e|---------------------------------------------------------------------------|
B|---------------------------------------------------------------------------|
G|---------------------------------------------------------------------------|
D|------5-7--7b8------8------3--5--5/7--------------1--3--3/5---------5~~----|
A|---5------------5/6-----3-------------3--3/5---1-------------1p0-----------|
E|---------------------------------------------------------------------------|

e|---------------------------------------------------------------------------|
B|---------------------------------------------------------------------------|
G|--------------------5b7br5p3---------------5b7br5p3------------------------|
D|---5h7b8br7p5-5/7------------5/7--5\3---5~-----------5/7--5--3-3/5~~-------|
A|--------------------------------------5-------------------5----------------|
E|---------------------------------------------------------------------------|

e|-----------------------------------------------------------------------------|
B|-------8-10-10b11------11-----6--8--8b10----------4--6--6b8------------------|
G|---7~--------------7-8------5-----------5b7---3-------------3--2-------------|
D|-----------------------------------------------------------------------------|
A|-----------------------------------------------------------------------------|
E|-----------------------------------------------------------------------------|

e|---------------------------------------------------------------5~----------|
B|----/8---8--10--10b11br10p8--8b10~~-------8--10--10b11---------------------|
G|---------------------------------------7------------------7p5--------------|
D|---------------------------------------------------------------------------|
A|---------------------------------------------------------------------------|
E|---------------------------------------------------------------------------|

e|---------------------------------------------------------------------------|
B|-----6--8--8b10---3b5~-----3\2/3--4/6-6/8--------/8~--8--10--10b11br10p8---|
G|--5----------------------4-----------------3--2----------------------------|
D|---------------------------------------------------------------------------|
A|---------------------------------------------------------------------------|
E|---------------------------------------------------------------------------|

e|----------------------------3----------------------------------------------|
B|--13b15~--13b15br13p11--10----6-------------------11--13--13b15br13--------|
G|---------------------------------5b7br5p3------12--------------------------|
D|------------------------------------------5--------------------------------|
A|---------------------------------------------------------------------------|
E|---------------------------------------------------------------------------|

e|---------------------------------------------------------------------------|
B|---11--10--8--6--6/8~~~~---------------------------------------------------|
G|---------------------------------------------------------------------------|
D|---------------------------------------------------------------------------|
A|---------------------------------------------------------------------------|
E|---------------------------------------------------------------------------|


************************************

| b   Bend
| /   Slide up
| ~   Vibrato
| p   Pull-off
| br  Bend release
| h   Hammer-on
| \   Slide down

************************************

            
            
Suggest correction
Creating personal tab
Creating personal tab
You can edit any tab online and save it as your Personal.

You can edit, replace or remove any tab part or add personal notes – all changes will be seen only by you.

Personal tabs can be accessed anytime from any device, even offline.
Learn more »
Give kudos to tab author, rate the tab!
1 2 3 4 5
comments
print report bad tab
1 comment total.
0 reply
jenslund01 50 Mar 20, 2017 12:32 PM

awesome, this is the first good tab of this song that i have seen...

guest
You may want to rate the tab now too:
select rating
Wanna post a correction for this tab? Suggest correction