Oops, an error
Loading. Please wait.

Are Friends Electric bass

version 2
version 2

Whole song

Interactive

3,204 views 9 this week
2 commentsread comments
1 2 3 4 5
x 3
add to favorites
×
Save as Personal and add changes to this tab that will be seen only by you. Learn more ›
×
You can save this tab as Personal to edit and correct it or add notes. All changes will be seen only by you. Learn more »
launch autoscroll
font size
0
reset
guitar tuner
edit
Autoscroll
slow
fast
+/-
esc
set tempo
stop
Difficulty
Hey guys, great song and I saw mistakes in the other bass tab, and I'm 100% sure this is 
the full song without mistakes.

Intro:

------------------------3---0---|
--------------------------2-----|  x6
-3-3--3-1-1--1-3-3--3-1---------|
--------------------------------|

After intro
------------------------------------------|
------------------------------------------| x1
------------------------------------------|
-1-1--1-1--1-1--1-1--1-1--1-1--1-1--1-1---|

intro x1

intro with change x1
-3---0-----|
---1---2---|
-----------|
-----------|

intro x4

after intro x1

Chorus

-------------5-------------5-4----|
-----3-0---7---7-----2----5-------| x6
---3---------------3---3----------|
-3---------------1----------------|

------------------------------------------------------|
------------------------------------------------------|
------------------------------------------------------| x4
--3(hold)/-1(hold)/-8(hold)---------------------------|

intro x6

after intro x1

intro x1

intro with change x1

intro x4

after intro x1

intro x1

after intro x1

chorus x6

intro until end

            
            
Suggest correction
Creating personal tab
Creating personal tab
You can edit any tab online and save it as your Personal.

You can edit, replace or remove any tab part or add personal notes – all changes will be seen only by you.

Personal tabs can be accessed anytime from any device, even offline.
Learn more »
Give kudos to tab author, rate the tab!
1 2 3 4 5
comments
print report bad tab
2 comments total.
+1 reply
Jordo141 483 Mar 09, 2012 01:34 PM

-------------5--------------5-4----|
-----3-0---7---7-----2---0-5-------| x6
---3-----5---------3---3-----------|
-3---------------1-----------------|

0 reply
Nicelife1992 10 Aug 31, 2012 04:23 AM

Chorus

-------------5-------------5-4----|
---0-3-0---7---7-----2----5-------| x6
-------------------3---3----------|
-3---------------1----------------|

I think it would be more correct

guest
Wanna post a correction for this tab? Suggest correction