Oops, an error
Loading. Please wait.

Cars bass

version 1
version 1

Whole song

Interactive

24,849 views 36 this week
8 commentsread comments
1 2 3 4 5
x 27
add to favorites
×
Save as Personal and add changes to this tab that will be seen only by you. Learn more ›
×
You can save this tab as Personal to edit and correct it or add notes. All changes will be seen only by you. Learn more »
launch autoscroll
font size
0
reset
guitar tuner
edit
Autoscroll
slow
fast
+/-
esc
set tempo
stop
Author
Difficulty
Unregistered
Tuning: EADG

[Main riff] (x2)
G|--------------------|
D|--------------------|
A|-5-4----------------|
E|-----3-5-(5)-(5)(5)-| (x4)

G|--------------------|
D|--------------------|
A|------2---------2---|
E|-0-h3---3--0-h3---3-| 

G|------|
D|------|
A|-17\5-|
E|------| 

(A)
G|------------------------------------|
D|----12---------------12----1514-----|
A|-------12--141514-------12----------|
E|-10---------------10----------------|

(B)                         1  2  1
G|--------------------------------------| (The bit in [] is played really fast.
D|----12-------------------[------12]---| the 1 2 1 above it is your fingers
A|-------12--141514--------[10-12---]---| to use (index is 1, middle is 2)
E|-10---------------10-10---------------| for all you players like me who
                                        use fingers.  Also I bar the 12 to
                                        hit both the notes without having
                                        awkward hand positions.)

(A)
G|------------------------------------|
D|----12---------------12----1514-----|
A|-------12--141514-------12----------|
E|-10---------------10----------------|

(C)
G|---------------------------------------|
D|----12---------------12-------------12-|
A|-------12--141514-------12----10-12----|
E|-10---------------10-------10----------|


************************************

| (n)  Ghost note
| h    Hammer-on
| \    Slide down

************************************

            
            
Suggest correction
Creating personal tab
Creating personal tab
You can edit any tab online and save it as your Personal.

You can edit, replace or remove any tab part or add personal notes – all changes will be seen only by you.

Personal tabs can be accessed anytime from any device, even offline.
Learn more »
comments
print report bad tab
8 comments total. Showing first comments.
0 reply
keneticshark24 135 Jun 28, 2007 02:59 AM

Excellent. Please please please tab more Gary Numan songs.

0 reply
mr freezy 40 Sep 17, 2007 09:14 AM

Brilliant tab. Have 5 stars.

0 reply
Derek Smalls :D 10 Jan 13, 2008 12:54 PM

well seein as Excellent and Brilliant are taken i'll go with Fantastic :D great tabbin!!! i see your a Mighty Boosh fan
am i right MOTHALICKA??? lol

guest
Wanna post a correction for this tab? Suggest correction