Oops, an error
Loading. Please wait.

Cars Tab

version 1
version 1

Whole song

Interactive

32,693 views 60 this week
no commentswrite comment
1 2 3 4 5
x 7
add to favorites
launch autoscroll
font size
0
reset
how to read this tab
guitar tuner
Autoscroll
slow
fast
+/-
esc
set tempo
stop
Help us to improve Ultimate-Guitar.com Take our survey!
×
Cars
From: Gary Numan
RP1:  Repeat one more time

e|------------------------------------------------------------|
B|------------------------------------------------------------|
G|------------------------------------------------------------|
D|------------------------------------------------------------|
A|------------------------------------------------------------|
E|----5b-5b-5b-5b-5b-5b-5b------------------------------------|(Make's a vibration)

e|------------------------------------------------------------|
B|------------------------------------------------------------|
G|------------------------------------------------------------|
D|------------------------------------------------------------|
A|-5-4------------5-4-----------------------------------------|
E|-----3-5-5-5--------3-5-5-5-RP1-2-3-7-3-3--2-3-7-3-3--------|

e|-17-19-17-15------------|
B|-------------15---------|
G|----------------16------|
D|-------------------17---|
A|------------------------|
E|------------------------|

e|-------------------------------------------------------|
B|-------------------------------------------------------|
G|-------------------------------------------------------|
D|-------------------------------------------------------|
A|-5-4----------5-4--------------------------------------|
E|-----3-5-5-5-------3-5-5-5-RP1---2-3-7-3-3---2-3-7-3-3-|
        [Repeat the Above again]

e|----------------------------13-12---------------------------|
B|----15-------------------------------15---------------------|
G|-------14-16-17-16----15----------------14-16-17-16------14-|
D|-12----------------12----14-------12----------------12-12---|
A|------------------------------------------------------------|
E|------------------------------------------------------------|

B continued - 15 (repeat above once more)

That's how the song goes.


************************************

| b   Bend
| RP1 Repeat the Above again 

************************************
Suggest correction
comments
print report bad tab
guest
You may want to rate the tab now too:
select rating
Wanna post a correction for this tab? Suggest correction