Oops, an error
Loading. Please wait.

Cars tab

version 3
version 3

Whole song

Interactive

33,942 views 66 this week
4 commentsread comments
1 2 3 4 5
x 26
add to favorites
×
Save as Personal and add changes to this tab that will be seen only by you. Learn more ›
×
You can save this tab as Personal to edit and correct it or add notes. All changes will be seen only by you. Learn more »
launch autoscroll
font size
0
reset
how to read this tab
guitar tuner
edit
Autoscroll
slow
fast
+/-
esc
set tempo
stop
Author
Difficulty
intermediate
[Intro]

Guitar
e|------------------------------------------------------------------------|
B|------------------------------------------------------------------------|
G|------------------------------------------------------------------------|
D|---Bend up and down slightly and quickly to make------------------------|
A|---a vibrating noise (Difficult to transcribe accurately)---------------|
E|---5b--5b--5b--5b--5b--5b--5b--5b--5b--etc...---------------------------|


[Section 1]

Guitar & synth arranged for guitar. (played twice)
e|------------|-----------|------------|---------|----------|-----------|
B|------------|-----------|------------|---------|----------|-----------|
G|------------|-----------|------------|---------|----------|-----------|
D|------------|-----------|------------|---------|----------|-----------|
A|5-4---------|5-4--------|5-4---------|5-4------|----------|-----------|
E|----3-5-5-5-|----3-5-5-5|----3-5-5-5-|----3-5-5|-2-3-7-3-3|-2-3-7-3-3-|
 |
e|17..........|.............|.............|..........|..17-19-17-15-------|
B|------------|-------------|-------------|----------|-------------15-----|
G|------------|-------------|-------------|----------|----------------16--|
D|------------|-------------|-------------|----------|------------------17|
A|------------|-------------|-------------|----------|--------------------|
E|------------|-------------|-------------|----------|--------------------|


[Section 2] 

Guitar & vocals: Guitar mirrors vocals. (Play twice in a row)
e|----------|------------|-------------|-----------|-----------|----------|
B|----------|------------|-------------|-----------|-----------|----------|
G|----------|------------|-------------|-----------|-----------|----------|
D|----------|------------|-------------|-----------|-----------|----------|
A|5-4-------|5-4---------|-5-4---------|-5-4-------|-----------|----------|
E|---3-5-5-5|----3-5-5-5-|-----3-5-5-5-|-----3-5-5-|-2-3-7-3-3-|-2-3-7-3-3|


[Section 3]

Guitar, no vocals (Play once)
e|---------------|--------13-12|----------------|-------------------------|
B|--15-----------|---15--------|--15------------|-------------15----------|
G|----14-16-17-16|-----14------|----14-16-17-16-|--------12h14------------|
D|12-------------|-12----------|12--------------|-12-12-------------------|
A|---------------|-------------|----------------|-------(last three notes-|
E|---------------|-------------|----------------|--------are played fast)-|

e|----------------|--------13-12-|-----------------|----------------------|
B|--15------------|---15---------|---15------------|----------15----------|
G|----14-16-17-16-|-----14-------|-----14-16-17-16-|----12-14-------------|
D|12--------------|-12-----------|-12--------------|-12-------------------|
A|----------------|--------------|-----------------|--(each note ---------|
E|----------------|--------------|-----------------|--the same length)----|



************************************

| h       Hammer-on
| b       Bend
| "....." continuous sound, it was originally synthesizer.

************************************

            
            
Suggest correction
Creating personal tab
Creating personal tab
You can edit any tab online and save it as your Personal.

You can edit, replace or remove any tab part or add personal notes – all changes will be seen only by you.

Personal tabs can be accessed anytime from any device, even offline.
Learn more »
comments
print report bad tab
4 comments total. Showing first comments.
0 reply
c0nv1c2 91 May 20, 2010 02:12 PM

very cool

+1 reply
troutmasta 10 Nov 08, 2011 04:41 PM

IK it's the same note-wise, but i feel it's a little easier for some to play the 7th fret on low E as 2nd fret on A string...

0 reply
ADAM1138 52 Aug 22, 2015 02:09 AM

cool thanks

guest
You may want to rate the tab now too:
select rating
Wanna post a correction for this tab? Suggest correction