Oops, an error
Loading. Please wait.

Kattemor tab

58 views 3 this week
no commentswrite comment
1 2 3 4 5
3 more votes to show rating
add to favorites
×
Save as Personal and add changes to this tab that will be seen only by you. Learn more ›
×
You can save this tab as Personal to edit and correct it or add notes. All changes will be seen only by you. Learn more »
launch autoscroll
font size
0
reset
how to read this tab
guitar tuner
edit
Autoscroll
slow
fast
+/-
esc
set tempo
stop
About this tab version
Ingen capo, 2-5 steng, Tab og Chords. Was this info helpful? Yes No
KATTEMOR
Gasolin'

e|--------------------------|--------------------------|--------------------------|--------------------------|
B|-----5----------5---------|-----3----------3---------|-----2----------2---------|-----3----------3---------|
G|-----------6-------6------|-----------4-------4------|-----------2-------2------|-----------4-------4------|
D|--------6-----------------|--------4-----------------|--------2-----------------|--------4-----------------|
A|--0-----------------------|--0-----------------------|--0-----------------------|--0-----------------------|
E|--------------------------|--------------------------|--------------------------|--------------------------|

e|--------------------------|--------------------------|--------------------------|--------------------------|
B|-----5----------5---------|-----3----------3---------|-----2----------2---------|-----3----------3---------|
G|-----------6-------6------|-----------4--------------|-----------2-------2------|-----------4-------4------|
D|--------6-----------------|--------4----------4------|--------2-----------------|--------4-----------------|
A|--0-----------------------|--0-----------------------|--0-----------------------|--0-----------------------|
E|--------------------------|--------------------------|--------------------------|--------------------------|

e|--------------------------|--------------------------|--------------------------|--------------------------|
B|-----5----------5---------|-----3----------3---------|-----2----------2---------|-----3----------3---------|
G|-----------6-------6------|-----------4-------4------|-----------2-------2------|-----------4-------4------|
D|--------6-----------------|--------4-----------------|--------2-----------------|--------4-----------------|
A|--0-----------------------|--0-----------------------|--0-----------------------|--0-----------------------|
E|--------------------------|--------------------------|--------------------------|--------------------------|

e|--------------------------|--------------------------|--------------------------|--------------------------|
B|-----5----------5---------|-----3----------3---------|-----2----------2---------|-----3----------3---------|
G|-----------6-------6------|-----------4--------------|-----------2-------2------|-----------4-------4------|
D|--------6-----------------|--------4----------4------|--------2-----------------|--------4-----------------|
A|--0-----------------------|--0-----------------------|--0-----------------------|--0-----------------------|
E|--------------------------|--------------------------|--------------------------|--------------------------|

e|--------------------------|--------------------------|--------------------------|--------------------------|
B|-----5----------5---------|-----3----------3---------|-----2----------2---------|-----3----------3---------|
G|-----------6-------6------|-----------4--------------|-----------2-------2------|-----------4-------4------|
D|--------6-----------------|--------4----------4------|--------2-----------------|--------4-----------------|
A|--0-----------------------|--0-----------------------|--0-----------------------|--0-----------------------|
E|--------------------------|--------------------------|--------------------------|--------------------------|

e|--------------------------|--------------------------|--------------------------|--------------------------|
B|--2------2~~~-------------|--2------2~~~-------------|--2------2~~~-------------|--2------2~~~-------------|
G|--2------2~~~-------------|--2------2~~~-------------|--2------2~~~-------------|--2------2~~~-------------|
D|--2------2~~~-------------|--2------2~~~-------------|--2------2~~~-------------|--2------2~~~-------------|
A|--------------------------|--------------------------|--------------------------|--------------------------|
E|--------------------------|--------------------------|--------------------------|--------------------------|

e|--------------------------|--------------------------|
B|--2------2~~~-------------|--2------2~~~-------------|
G|--2------2~~~-------------|--2------2~~~-------------|
D|--------------------------|--------------------------|
A|--------------------------|--------------------------|
E|--------------------------|--------------------------|

e|--------------------------|--------------------------|--------------------------|--------------------------|
B|--1--1--1--1--1--1--1--1--|--3--3--3--3--3--3--3--3--|--2--2--2--2--2--2--2--2--|--2--2--2--2--2--2--2--2--|
G|--------------------------|--2--2--2--2--2--2--2--2--|--2--2--2--2--2--2--2--2--|--2--2--2--2--2--2--2--2--|
D|--2--2--2--2--2--2--2--2--|--------------------------|--2--2--2--2--2--2--2--2--|--2--2--2--2--2--2--2--2--|
A|--3--3--3--3--3--3--3--3--|--------------------------|--------------------------|--------------------------|
E|--------------------------|--------------------------|--------------------------|--------------------------|

e|--------------------------|--------------------------|--------------------------|--------------------------|
B|--1--1--1--1--1--1--1--1--|--3--3--3--3--3--3--3--3--|--2--2--2--2--2--2--2--2--|--2--2--2--2--2--2--2--2--|
G|--------------------------|--2--2--2--2--2--2--2--2--|--2--2--2--2--2--2--2--2--|--2--2--2--2--2--2--2--2--|
D|--2--2--2--2--2--2--2--2--|--------------------------|--2--2--2--2--2--2--2--2--|--2--2--2--2--2--2--2--2--|
A|--3--3--3--3--3--3--3--3--|--------------------------|--------------------------|--------------------------|
E|--------------------------|--------------------------|--------------------------|--------------------------|

e|--------------------------|--------------------------|--------------------------|--------------------------|
B|-----5----------5---------|-----3----------3---------|-----2----------2---------|-----3----------3---------|
G|-----------6-------6------|-----------4-------4------|-----------2-------2------|-----------4-------4------|
D|--------6-----------------|--------4-----------------|--------2-----------------|--------4-----------------|
A|--0-----------------------|--0-----------------------|--0-----------------------|--0-----------------------|
E|--------------------------|--------------------------|--------------------------|--------------------------|

e|--------------------------|--------------------------|--------------------------|--------------------------|
B|-----5----------5---------|-----3----------3---------|-----2----------2---------|-----3----------3---------|
G|-----------6-------6------|-----------4--------------|-----------2-------2------|-----------4-------4------|
D|--------6-----------------|--------4----------4------|--------2-----------------|--------4-----------------|
A|--0-----------------------|--0-----------------------|--0-----------------------|--0-----------------------|
E|--------------------------|--------------------------|--------------------------|--------------------------|

e|--------------------------|--------------------------|--------------------------|--------------------------|
B|-----5----------5---------|-----3----------3---------|-----2----------2---------|-----3----------3---------|
G|-----------6-------6------|-----------4-------4------|-----------2-------2------|-----------4-------4------|
D|--------6-----------------|--------4-----------------|--------2-----------------|--------4-----------------|
A|--0-----------------------|--0-----------------------|--0-----------------------|--0-----------------------|
E|--------------------------|--------------------------|--------------------------|--------------------------|

e|--------------------------|--------------------------|--------------------------|--------------------------|
B|-----5----------5---------|-----3----------3---------|-----2----------2---------|-----3----------3---------|
G|-----------6-------6------|-----------4--------------|-----------2-------2------|-----------4-------4------|
D|--------6-----------------|--------4----------4------|--------2-----------------|--------4-----------------|
A|--0-----------------------|--0-----------------------|--0-----------------------|--0-----------------------|
E|--------------------------|--------------------------|--------------------------|--------------------------|

e|--------------------------|--------------------------|--------------------------|--------------------------|
B|--2------2~~~-------------|--2------2~~~-------------|--2------2~~~-------------|--2------2~~~-------------|
G|--2------2~~~-------------|--2------2~~~-------------|--2------2~~~-------------|--2------2~~~-------------|
D|--2------2~~~-------------|--2------2~~~-------------|--2------2~~~-------------|--2------2~~~-------------|
A|--------------------------|--------------------------|--------------------------|--------------------------|
E|--------------------------|--------------------------|--------------------------|--------------------------|

e|--------------------------|--------------------------|
B|--2------2~~~-------------|--2------2~~~-------------|
G|--2------2~~~-------------|--2------2~~~-------------|
D|--------------------------|--------------------------|
A|--------------------------|--------------------------|
E|--------------------------|--------------------------|

e|--------------------------|--------------------------|--------------------------|--------------------------|
B|--1--1--1--1--1--1--1--1--|--3--3--3--3--3--3--3--3--|--2--2--2--2--2--2--2--2--|--2--2--2--2--2--2--2--2--|
G|--------------------------|--2--2--2--2--2--2--2--2--|--2--2--2--2--2--2--2--2--|--2--2--2--2--2--2--2--2--|
D|--2--2--2--2--2--2--2--2--|--------------------------|--2--2--2--2--2--2--2--2--|--2--2--2--2--2--2--2--2--|
A|--3--3--3--3--3--3--3--3--|--------------------------|--------------------------|--------------------------|
E|--------------------------|--------------------------|--------------------------|--------------------------|

e|--------------------------|--------------------------|--------------------------|--------------------------|
B|--1--1--1--1--1--1--1--1--|--3--3--3--3--3--3--3--3--|--2--2--2--2--2--2--2--2--|--2--2--2--2--2--2--2--2--|
G|--------------------------|--2--2--2--2--2--2--2--2--|--2--2--2--2--2--2--2--2--|--2--2--2--2--2--2--2--2--|
D|--2--2--2--2--2--2--2--2--|--------------------------|--2--2--2--2--2--2--2--2--|--2--2--2--2--2--2--2--2--|
A|--3--3--3--3--3--3--3--3--|--------------------------|--------------------------|--------------------------|
E|--------------------------|--------------------------|--------------------------|--------------------------|

e|--------------------------|--------------------------|--------------------------|--------------------------|
B|-----5----------5---------|-----3----------3---------|-----2----------2---------|-----3----------3---------|
G|-----------6-------6------|-----------4--------------|-----------2-------2------|-----------4-------4------|
D|--------6-----------------|--------4----------4------|--------2-----------------|--------4-----------------|
A|--0-----------------------|--0-----------------------|--0-----------------------|--0-----------------------|
E|--------------------------|--------------------------|--------------------------|--------------------------|

e|--------------------------|--------------------------|--------------------------|--------------------------|
B|-----5----------5---------|-----3----------3---------|-----2----------2---------|-----3----------3---------|
G|-----------6-------6------|-----------4--------------|-----------2-------2------|-----------4-------4------|
D|--------6-----------------|--------4----------4------|--------2-----------------|--------4-----------------|
A|--0-----------------------|--0-----------------------|--0-----------------------|--0-----------------------|
E|--------------------------|--------------------------|--------------------------|--------------------------|

e|--------------------------|--------------------------|--------------------------|--------------------------|
B|-----5----------5---------|-----3----------3---------|-----2----------2---------|-----3----------3---------|
G|-----------6-------6------|-----------4--------------|-----------2-------2------|-----------4-------4------|
D|--------6-----------------|--------4----------4------|--------2-----------------|--------4-----------------|
A|--0-----------------------|--0-----------------------|--0-----------------------|--0-----------------------|
E|--------------------------|--------------------------|--------------------------|--------------------------|

e|--------------------------|--------------------------|--------------------------|--------------------------|
B|--2------2~~~-------------|--2------2~~~-------------|--2------2~~~-------------|--2------2~~~-------------|
G|--2------2~~~-------------|--2------2~~~-------------|--2------2~~~-------------|--2------2~~~-------------|
D|--2------2~~~-------------|--2------2~~~-------------|--2------2~~~-------------|--2------2~~~-------------|
A|--------------------------|--------------------------|--------------------------|--------------------------|
E|--------------------------|--------------------------|--------------------------|--------------------------|

e|--------------------------|--------------------------|
B|--2------2~~~-------------|--2------2~~~-------------|
G|--2------2~~~-------------|--2------2~~~-------------|
D|--------------------------|--------------------------|
A|--------------------------|--------------------------|
E|--------------------------|--------------------------|

e|--------------------------|--------------------------|--------------------------|--------------------------|
B|--1--1--1--1--1--1--1--1--|--3--3--3--3--3--3--3--3--|--2--2--2--2--2--2--2--2--|--2--2--2--2--2--2--2--2--|
G|--------------------------|--2--2--2--2--2--2--2--2--|--2--2--2--2--2--2--2--2--|--2--2--2--2--2--2--2--2--|
D|--2--2--2--2--2--2--2--2--|--------------------------|--2--2--2--2--2--2--2--2--|--2--2--2--2--2--2--2--2--|
A|--3--3--3--3--3--3--3--3--|--------------------------|--------------------------|--------------------------|
E|--------------------------|--------------------------|--------------------------|--------------------------|

e|--------------------------|--------------------------|--------------------------|--------------------------|
B|--1--1--1--1--1--1--1--1--|--3--3--3--3--3--3--3--3--|--2--2--2--2--2--2--2--2--|--2--2--2--2--2--2--2--2--|
G|--------------------------|--2--2--2--2--2--2--2--2--|--2--2--2--2--2--2--2--2--|--2--2--2--2--2--2--2--2--|
D|--2--2--2--2--2--2--2--2--|--------------------------|--2--2--2--2--2--2--2--2--|--2--2--2--2--2--2--2--2--|
A|--3--3--3--3--3--3--3--3--|--------------------------|--------------------------|--------------------------|
E|--------------------------|--------------------------|--------------------------|--------------------------|

e|--------------------------|--------------------------|--------------------------|--------------------------|
B|-----5----------5---------|-----3----------3---------|-----2----------2---------|-----3----------3---------|
G|-----------6-------6------|-----------4--------------|-----------2-------2------|-----------4-------4------|
D|--------6-----------------|--------4----------4------|--------2-----------------|--------4-----------------|
A|--0-----------------------|--0-----------------------|--0-----------------------|--0-----------------------|
E|--------------------------|--------------------------|--------------------------|--------------------------|

e|--------------------------|
B|--5~~~~~~~~~~~~~~~~~~~~~--|
G|--6~~~~~~~~~~~~~~~~~~~~~--|
D|--6~~~~~~~~~~~~~~~~~~~~~--|
A|--------------------------|
E|--------------------------|



************************************

| ~  Vibrato

************************************

            
            
Suggest correction
Creating personal tab
Creating personal tab
You can edit any tab online and save it as your Personal.

You can edit, replace or remove any tab part or add personal notes – all changes will be seen only by you.

Personal tabs can be accessed anytime from any device, even offline.
Learn more »
Give kudos to tab author, rate the tab!
1 2 3 4 5
comments
print report bad tab
guest
You may want to rate the tab now too:
select rating
Wanna post a correction for this tab? Suggest correction