Oops, an error
Loading. Please wait.

Revelation Song Tab

version 1
version 1

Intro

Whole song

10,264 views 36 this week
no commentswrite comment
1 2 3 4 5
please rate
add to favorites
launch autoscroll
font size
0
reset
how to read this tab
guitar tuner
Tab Pro tools
  • play this tab
  • loop segment
  • change instrument
  • show fretboard
  • metronome
×
Best way to learn
"Revelation Song"
Autoscroll
slow
fast
+/-
esc
set tempo
stop
Contributor
Difficulty
intermediate
SONG: Revelation Song
ARTIST: Gateway Worship w/ Kari Jobe
TUNING: Standard (eBGDAE)

Tabbed by:
Jeremy

By the way, the first solo after the chorus are very hard to hear and is tabbed
the way I play it and it still fits in. If it doesn't sound right to you just make your own. :)


~Verse 1~ (listen closely when to come in)
e|-14~--12~--15~----19~--------14~--12~--15~--------19~----------------------|
B|---------------------15~----------------------15~------15~-----------------|
G|---------------------------------------------------------------------------|
D|---------------------------------------------------------------------------|
A|---------------------------------------------------------------------------|
E|---------------------------------------------------------------------------|

~Chorus~ (This is the rhythm through almost the entire song)
e|---------------------------------------------------------------------------|
B|---------------------------------------------------------------------------|
G|-7~------------------------------------------------------------------------| X2
D|-7~----7~----10~----5~-----------------------------------------------------|
A|-5~----7~----10~----5~-----------------------------------------------------|
E|-------5~----8~-----3~-----------------------------------------------------|

~Solo 1~
e|--14b~--15b~---------------------------------------------------------------|
B|-------------17~--17-17p15p12h15---13b~---17-17-16-14-12-12~~--------------|
G|---------------------------------------------------------------------------|
D|---------------------------------------------------------------------------|
A|---------------------------------------------------------------------------|
E|---------------------------------------------------------------------------|

~Verse 2~
e|---------------------------------------------------------------------------|
B|---------------------------------------------------------------------------|
G|----------------------7~--(Continue repeating chorus chords)---------------|
D|----------------------7~---------------------------------------------------|
A|-------------10-9-7-5-5~---------------------------------------------------|
E|---------------------------------------------------------------------------|
  "thunder..."  . . . .

CHORUS X2

~Solo 2~
e|---------------------------------8~-7~-5~--3-3--------12b~12--10-10~~--s14~|
B|--8~-7~-5~--5p3h5--5s7b-5p3h5-------------------14h15----------------------|
G|---------------------------------------------------------------------------|
D|---------------------------------------------------------------------------|
A|---------------------------------------------------------------------------|
E|---------------------------------------------------------------------------|

VERSE 3 (rest)
CHORUS
CHORUS (rest)
CHORUS

~Finish :)~
e|---------------------------------------------------------------------------|
B|---------------------------------------------------------------------------|
G|-7~~~~---------------------------------------------------------------------|
D|-7~~~~---------------------------------------------------------------------|
A|-5~~~~---------------------------------------------------------------------|
E|---------------------------------------------------------------------------|
~~~~~~~~~~~~~~~~~
*LEGEND*
b = Bend slightly
B = Full bend
~ = Sustained note
. = Palm mute
s = Slide
h = Hammer-on
P = Pull-off
comments
We did not receive enough feedback on this tab! Please rate:
print report bad tab
1 2 3 4 5
I want to post or [tab]
guest
You may want to rate the tab now too:
select rating
Please do not post tabs as comments. Select "correction" instead!