Oops, an error
Loading. Please wait.

No Love Chords

69 views 1 this week
no commentswrite comment
1 2 3 4 5
3 more votes to show rating
add to favorites
×
Save as Personal and add changes to this tab that will be seen only by you. Learn more ›
×
You can save this tab as Personal to edit and correct it or add notes. All changes will be seen only by you. Learn more »
save as personal
new!
launch autoscroll
font size
0
reset
transpose
0
reset
display chords
guitar tuner
Autoscroll
slow
fast
+/-
esc
set tempo
stop
Strumming
There is no strumming pattern for this song yet. and get +5 IQ
Todos los acordes en quintas

Intro: A, A, LA, LA, C, LA, LA, LA, E, F, E, F

A
No se si sigo vivo
F
no lo puedo demostrar
G                        A             C
si me apuñalan sangro como todos los demás
A
no se si estoy muerto
F
o en un nivel sin explorar
G
si he perdido la cabeza
E        F E F MI
o es cosa de los demás

C                G
cada vez que cago recuerdo a laydydy
E        F       A                G
pienso en España y pienso mucho en ti
C                   G
y cuando digo mierda pienso en cualquier rey,
E         F       A             G
si mi hijo se muere que será de mi

(en esta parte volveríamos a repetir el ?intro?)

A
ya no hay verano
F
y tu ya no me gustas
G             A                    C
solo siento que la primavera me engaño
A
no me llores babi
F
que ya he regado las plantas,
G
se acabó el amor,
E
la poesía se largo

A                F
cada vez que cago recuerdo a laydydy
C                 G               G#
pienso en España y pienso mucho en ti
A                   F
y cuando digo mierda pienso en cualquier rey,
C                  G           G#
si mi hijo se muere que será de mi

voy atravesar ese cristal con la cabeza y voy aterrizar entre todos
tus putos botones!!
|-------------------------------------------------------------------|
|-------------------------------------------------------------------|
|-------------------------------------------------------------------|
|-----7-7-------------7-7-------------7-7-----9-9-----10-10-----9-9-|
|-------------7-7-------------7-7-0-0-----0-0-----0-0-------0-0-----|
|-5-5-----5-5-----5-5-----5-5---------------------------------------|

|----------------------------------------------------------|
|----------------------------------------------------------|
|----------------------------------------------------------|
|-----7-7-------------7-7-----------7---9---10---9-------7-|
|-0-0-----0-0-7-7-0-0-----0-0-7-7-0---0---0----0---0-0-0---|
|----------------------------------------------------------|

|-------8-----8---------8-----8---------8-----8---------8-----8---|
|-----------------------------------------------------------------|
|-7-9-9---9-9---9-7-9-9---9-9---9-7-9-9---9-9---9-7-9-9---9-9---9-|
|-----------------------------------------------------------------|
|-----------------------------------------------------------------|
|-----------------------------------------------------------------|

|---------------------------------------------------------------|
|---------------------------------------------------------------|
|-7-9-9-10-10-10-10-10-5-7-5-5-5-5-5-7-9-9-10-10-10-10-10-7-9-9-|
|---------------------------------------------------------------|
|---------------------------------------------------------------|
|---------------------------------------------------------------|

|----------------------8-----8---------8-----8---------8-----8-------|
|--------------------------------------------------------------------|
|-10-10-10-10-10-7-9-9---9-9---9-7-9-9---9-9---9-7-9-9---9-9---9-7-9-|
|--------------------------------------------------------------------|
|--------------------------------------------------------------------|
|--------------------------------------------------------------------|

|---8-----8-----------|
|---------------------| (Lo siento pero no he podido sacar las ultimas
|-9---9-9---9-7-9-9-9-|  notas. Yo arrastro en ese momento la pua por
|---------------------|  las cuerdas hasta llegar al mástil, por hacer
|---------------------|  algo jeje)
|---------------------|

A                F
cada vez que cago recuerdo a laydydy
C                 G               G#
pienso en España y pienso mucho en ti
A                   F
y cuando digo mierda pienso en cualquier rey,
C                  G           G#
si mi hijo se muere que será de mi
Suggest correction
Give kudos to tab author, rate the tab!
1 2 3 4 5
comments
print report bad tab
guest
Wanna post a correction for this tab? Suggest correction