Oops, an error
Loading. Please wait.

Sweeter ukulele

version 1
version 1

Whole song

Interactive

429 views 3 this week
no commentswrite comment
1 2 3 4 5
3 more votes to show rating
add to favorites
×
Save as Personal and add changes to this tab that will be seen only by you. Learn more ›
×
You can save this tab as Personal to edit and correct it or add notes. All changes will be seen only by you. Learn more »
launch autoscroll
font size
0
reset
transpose
0
reset
display chords
guitar tuner
edit
Autoscroll
slow
fast
+/-
esc
set tempo
stop
Difficulty
Strumming
There is no strumming pattern for this song yet. and get +5 IQ
-----------------------------------------------------------------------------
                             Sweeter - Gavin DeGraw
-----------------------------------------------------------------------------

Tabbed by: JBW
Song : Sweeter
Artist : Gavin DeGraw
Album : Sweeter

Tuning: Standard

Everything is here for the song. You just need to play along with it to get it :)
For the intro you'll have to repeat parts. and for the verses you'll follow the chord changes
On the second half of the verses he plays the octaves of the root note on the piano
easy but fun song to play and sing (harder to sing)
On the second half of the verses he plays octaves on piano of the root notes for each chord

Chords Used :   A   G   F   D

e|----0------3--------1--------2--------------------------------------------|
B|----2------3--------1--------3--------------------------------------------|
G|----2------0--------2--------2--------------------------------------------|
D|----2------0--------3--------0--------------------------------------------|
A|----0------2--------3-----------------------------------------------------|
E|-----------3--------1-----------------------------------------------------|

Intro/ verses (Lead melody)
the very first time is slightly different than the rest (listen for the specific 
parts, rhythms, and the changes :)

e|-------------------------------------------------------------------------|
B|-------------------------------------------------------------------------|
G|-------------------------------------------------------------------------|
D|-------------------------------------------------------------------------|
A|-------------------------------------------------------------------------|
E|----5--5--5--5--5--5--5--5--5--5--5--5--5--5---3-3-3---------------------|

e|-------------------------------||-----------------------------------------|
B|-------------------------------||-----------------------------------------|
G|-------------------------------||-----------------------------------------|
D|-------------------------------||-----------------------------------------|
A|----------------------5-6-7----||-----------------------5-6-7-------------|
E|----5--5--5--5--5--5-----------||-----5--5--5--5--5--5--------------------|

e|--------------------------------------------------------------------------|
B|--------------------------------------------------------------------------|
G|--------------------------------------------------------------------------|
D|--------------------------------------------------------------------------|
A|---------------------5-6-7-------------------------5-6-7------------------|
E|----3--3--3--3--3--3-------------1--1--1--1--1--1-------------------------|

  A
You

You don't know how lucky you are
                                  G
Hanging with that girl on your arm
    F                             A
But soon enough I'm taking my shot

Bang! 
Once I get 'em locked in my sight
Doesn't mean I wasn't alright
I'm just seeing something I like

Woo hoo 

(Chorus)
A               G
I just wanna take
D                 A
Someone else's holiday
A                        G
Sometimes the grass is greener
      D        
And someone else's sugar
  F              G
Someone else's sugar
N/C
Sweeter

Intro

You
Went to school and found out you're dumb
Maybe you just had too much fun
Fell in love and think it's the one

A
You're like an angel
Got me feeling like a devil
    G
And I wanna give you something if
      F                          A
You promise that you won't tell

Woo hoo

(Chorus)

A
I'm a recommend 
You take that body to the other end
I really like you but I can't be friends
                         N/C (but i go down G  F  G then back into chorus with A)
Not with these hands of mine

(Chorus)

(Chorus)
Suggest correction
Creating personal tab
Creating personal tab
You can edit any tab online and save it as your Personal.

You can edit, replace or remove any tab part or add personal notes – all changes will be seen only by you.

Personal tabs can be accessed anytime from any device, even offline.
Learn more »
Give kudos to tab author, rate the tab!
1 2 3 4 5
comments
print report bad tab
guest
Wanna post a correction for this tab? Suggest correction