Oops, an error
Loading. Please wait.

Nervous intro tab

version 1
version 1

Intro

  • Here’s the intro tab, from ear. I can update it ... Show more
  • More accurate melody than other tabs.
  • ver 4 new
    Hay,this is my Fingerstyle version from Nervous by amazing singer Gavin James.

Whole song

  • ver 2 new
    This is the studio version tabbed out beginning to... Show more
  • ver 4 new
    There are very few tabs of this song, nevertheless... Show more

Interactive

3,964 views 87 this week
1 commentread comment
1 2 3 4 5
x 7
add to favorites
×
Save as Personal and add changes to this tab that will be seen only by you. Learn more ›
×
You can save this tab as Personal to edit and correct it or add notes. All changes will be seen only by you. Learn more »
launch autoscroll
font size
0
reset
how to read this tab
guitar tuner
edit
Autoscroll
slow
fast
+/-
esc
set tempo
stop
About this tab version
Here’s the intro tab, from ear. I can update it after I’ve bought the sheet music. Was this info helpful? Yes No
[Intro]

  Dm              Bm                F                         C
e|------1---------------1-----------------1-----------1-------0--------------|
B|-3---------------3------3---------1---1-----1---1-----1---1---1---1--------|
G|----2---2---2------3------3---3-----2---------1---------1-------0----------|
D|-0--------0-----------------3-----3-----------------3-------2--------------|
A|-----------------1---------------------------------------------------------|
E|---------------------------------------------------------------------------|

  Dm              Bm                F                         C
e|------1(8p5)----------1-----------------1-----------1-------0--------------|
B|-3---------------3------3---------1---1-----1---1-----1---1---1---1--------|
G|----2---2---2------3------3---3-----2---------1---------1-------0----------|
D|-0--------0-----------------3-----3-----------------3-------2--------------|
A|-----------------1---------------------------------------------------------|
E|---------------------------------------------------------------------------|

I’m not entirely sure how to get the (8p5) in. Suggestions welcome.



************************************

| p  Pull-off 

************************************

            
            
Suggest correction
Creating personal tab
Creating personal tab
You can edit any tab online and save it as your Personal.

You can edit, replace or remove any tab part or add personal notes – all changes will be seen only by you.

Personal tabs can be accessed anytime from any device, even offline.
Learn more »
There is a new version of this tab from 2 days ago which you may like more. Go check it out:
comments
print report bad tab
1 comment total.
0 reply
flynndonaldso1 10 Dec 10, 2016 04:18 AM

when are you getting the sheet music?

guest
You may want to rate the tab now too:
select rating
Wanna post a correction for this tab? Suggest correction