Oops, an error
Loading. Please wait.

Nervous intro tab

version 2
version 2

Intro

  • Here’s the intro tab, from ear. I can update it ... Show more
  • More accurate melody than other tabs.
  • ver 4 new
    Hay,this is my Fingerstyle version from Nervous by amazing singer Gavin James.

Whole song

  • ver 2 new
    This is the studio version tabbed out beginning to... Show more
  • ver 4 new
    There are very few tabs of this song, nevertheless... Show more

Interactive

436 views 42 this week
no commentswrite comment
1 2 3 4 5
2 more votes to show rating
add to favorites
×
Save as Personal and add changes to this tab that will be seen only by you. Learn more ›
×
You can save this tab as Personal to edit and correct it or add notes. All changes will be seen only by you. Learn more »
launch autoscroll
font size
0
reset
how to read this tab
guitar tuner
edit
Autoscroll
slow
fast
+/-
esc
set tempo
stop
[Intro] 
 
E|-----------------|-----------------|-----------=-----|-----------------|
B|------1----------|------1----------|-------1-----1---|-------1-------1-|
G|----2---2--------|-0h2----2p0----0-|-----0---0-------|-----0-------0---|
D|------------2h3--|---3---------3---|---2-------2-----|---2-------0-----|
A|-0---------------|---3-------------|-3---------------|-3-------2-------|
E|-----------------|-----------------|-----------------|-----------------|
 
E|------3p0--------|-----------------|-----------=-----|-----------------|
B|-----------1-----|------1----------|-------1-----1---|-------1p0-------|
G|---2---------2---|-0h2----2p0----0-|-----0---0-------|-----0-----0-----|
D|---2-----------2-|---3---------3---|---2-------2-----|---2---------0---|
A|-0---------------|---3-------------|-3---------------|-3-------------2-|
E|-----------------|-----------------|-----------------|-----------------|



************************************

| h  Hammer-on
| p  Pull-off

************************************

            
            
Suggest correction
Creating personal tab
Creating personal tab
You can edit any tab online and save it as your Personal.

You can edit, replace or remove any tab part or add personal notes – all changes will be seen only by you.

Personal tabs can be accessed anytime from any device, even offline.
Learn more »
Give kudos to tab author, rate the tab!
1 2 3 4 5
There is a new version of this tab from 2 days ago which you may like more. Go check it out:
comments
print report bad tab
guest
You may want to rate the tab now too:
select rating
Wanna post a correction for this tab? Suggest correction