Oops, an error
Loading. Please wait.

The Book Of Love tab

version 2
version 2

Whole song

Interactive

1,573 views 45 this week
no commentswrite comment
1 2 3 4 5
x 3
add to favorites
×
Save as Personal and add changes to this tab that will be seen only by you. Learn more ›
×
You can save this tab as Personal to edit and correct it or add notes. All changes will be seen only by you. Learn more »
launch autoscroll
font size
0
reset
how to read this tab
guitar tuner
edit
Autoscroll
slow
fast
+/-
esc
set tempo
stop
Gavin james - The book of love  (Live from The Capitol Tower)

I Tried my best to make a version on the live preformance,
to my hearing is the intro accurate, the verse is somewhat accurate.
feel free to comment.

p= pull off
~= vibrate

capo 5
Intro:
 G                                    C          D
------------------------------------------------------------------------------------|
-------------------------------0--1--1-----0----------------------------------------|
-------------------------------0--0--0-----------2-----0--2--4-----0----------------|
----------------------------0-----------2-----2--0--0----------------0--------------|
-------------------------------------3----------------------------------------------|
-3--3--3--3--3--3--3--3--3----------------------------------3-----------------------| 

 G            C          D          G             Em           C          D             
------------------------------------------------------------------------------------------------|
--------0--1--1----0-------------------------------------0--1--1----0-------------------3~--1p0-|
--------0--0--0----------2--4p2p0-------0-------0--------0--0--0----0-----2-----0--2S4------0---|
-----0-----------2----2--0-----------------0----------0-----------2----2--0--0------------------|
--------------3------------------------------------------------3--------------------------------|
--3----------------------------------3--------2----0--------------------------------------------| 

  C
----------------------3--------3-----------------------------------------------------|
-----------1P0-----------------------------------------------------------------------|
--------0-------0--------0------0----------------------------------------------------|
-----2-------------2--------2--------------------------------------------------------|
--3----------------------------------------------------------------------------------|
-------------------------------------------------------------------------------------| 

The following you can play throughout the whole song:
  G            C          D             G                   
-----------------------------------------------------| 
--------------------------------3--------------------| 
-----------------------------2-----2-----------------|
--------0-----------0-----0------------------0-------|
-----0-----0-----0-----0------------------0-----0----|
--------------3--------------------------------------|
--3------------------------------------3-------------|

an alternative with Em
 C          D               G       Em                         
--------------------------------------------------| 
-------------------3------------------------------| 
----------------2-----2---------------------------|
-------0-----0-----------------------------0------|
----0-----0-----------------0-----0-----0-----0---|
-3------------------------------------------------|
-------------------------3-----2-----0------------|

verse1
G           C        D       G      Em      
The book of love is long and boring
Em          C        D       G      
No one can lift the damn thing
Em           C          D           G        Em      C        D     G
It's full of charts and facts, some figures and instructions for dancing

Chorus:
G          C            D        G
And I
Em         C          D     G
I love it when you read to me
G          C            D        G
And you
Em          C      D     G
You can read me anything

verse 2
The book of love has music in it
In fact that's where music comes from
Some of it's is just transcendental
Some of it is just really dumb

chorus
And I
I love it when you sing to me
And you
You can sing me anything
You can sing me anything

Oooh oooh 

verse 3
The book of love is long and boring
And written many years ago
It's full of thousand heart-shaped boxes
And things we're all too young to know

chorus
And I
I love it when you give me things
And you
You ought to give me wedding rings

------------------------------------------------------------------------------------------------|
------------------------------------------------------------------------------------------------|
-----------1-----------1-----------1--1--------1--------1--------1------------------0-----------|
--------0-----------0-----------0--------0--------0--------0--------0------------0--------------|
-----2-----------0-----------2--------------2--------2--------2---------2-----0-----------------|
--0-----------2-----------3---------------------------------------------------------------------|
---------------------------------------------------------------------------3--------------------|

And I,                   I love it when you give me things
And you
You ought to give me wedding rings
Yeah, you ought to give me wedding rings
You ought to give me wedding rings.


Enjoy!!

            
            
Suggest correction
Creating personal tab
Creating personal tab
You can edit any tab online and save it as your Personal.

You can edit, replace or remove any tab part or add personal notes – all changes will be seen only by you.

Personal tabs can be accessed anytime from any device, even offline.
Learn more »
Give kudos to tab author, rate the tab!
1 2 3 4 5
comments
print report bad tab
guest
You may want to rate the tab now too:
select rating
Wanna post a correction for this tab? Suggest correction