Oops, an error
Loading. Please wait.

Que Vas Hacer Esta Noche Tab

by Gaviota
91 views 1 this week
no commentswrite comment
1 2 3 4 5
3 more votes to show rating
add to favorites
launch autoscroll
font size
0
reset
how to read this tab
guitar tuner
×
Best way to learn
"Que Vas Hacer Esta Noche"
Autoscroll
slow
fast
+/-
esc
set tempo
stop
Le agradezaco a Socrates
porque este solo verdaderamente lo saco él

Solo:
e:-----------------------|
B:15-15-15-15-14-12------|
G:-----------------------|
D:-----------------------|
A:-----------------------|
E:-----------------------|

e:|----15-15-15-15-14--12------|
B:|-12---------------15--------|
G:|----------------------------|
D:|----------------------------|
A:|----------------------------|
E:|----------------------------|

e:|-14-14-14-14-12---17--------|
B:|----------------15----------|
G:|----------------------------|
D:|----------------------------|
A:|----------------------------|
E:|----------------------------|
Suggest correction
Give kudos to tab author, rate the tab!
1 2 3 4 5
comments
print report bad tab
guest
You may want to rate the tab now too:
select rating
Wanna post a correction for this tab? Suggest correction