Oops, an error
Loading. Please wait.

Amor Amor Tab

version 3
version 3

Whole song

33 views 1 this week
no commentswrite comment
1 2 3 4 5
3 more votes to show rating
add to favorites
launch autoscroll
font size
0
reset
how to read this tab
guitar tuner
Autoscroll
slow
fast
+/-
esc
set tempo
stop
Help us to improve Ultimate-Guitar.com Take our survey!
×
Un aporte. Cualquier duda a jd_valdivia@

Introducción

e|-7/8--8-7-8----8/12--12-10-9/10--10--7/8------|
b|----------------------------------------------|
g|----------------------------------------------|
D|-6/7--7-6-7----7/10--10-9--8/9---9---6/7------|
A|----------------------------------------------|
E|----------------------------------------------|


e|-8/12--12-11-12----14/15-15--14-12-12/15--10--7--|
b|-------------------------------------------------|
g|-------------------------------------------------|
D|-7/10--10-9--10----12/14-14--12-10-10/14--9---5--|
A|-------------------------------------------------|
E|-------------------------------------------------|


e|-7/8---8-7--8------------7---7/12-12---7--12--10p8--------8------8--|
b|-9/10-10-9-10-----7-9-10-------------9-----------------10---10------|
g|----------------9------------------------------------9---------9----|
D|--------------------------------------------------------------------|
A|--------------------------------------------------------------------|
E|--------------------------------------------------------------------|


e|--8/12--12-11-12----14/15--15--14-12-12/15-12p10--------|
b|-10/13--13-12-13----15/17--17--------------------10p12--|
g|--------------------------------------------------------|
D|--------------------------------------------------------|
A|--------------------------------------------------------|
E|--------------------------------------------------------|


e|----------------------------------7-7--5-4/5--5p7--7p5--------------|
b|-7/10--10--9-10---------9-10-11---8-8--7-6/7--7----7---------4-5-7--|
g|-9/11--11-10-11---11-12----------------------------------4-6--------|
D|--------------------------------------------------------------------|
A|--------------------------------------------------------------------|
E|--------------------------------------------------------------------|


e|-3-3--5-7-----9/11-11-12--12p10----11p12---------------------7----8-|
b|-5-5--6-8----10/12-12-----------12--------12p10-----8-7-10-9---10---|
g|--------------------------------------------------9-----------------|
D|--------------------------------------------------------------------|
A|--------------------------------------------------------------------|
E|--------------------------------------------------------------------|


e|----------------------------------7-7--5-4/5--5p7--7p5--------------|
b|-7/10--10--9-10---------9-10-11---8-8--7-6/7--7----7---------4-5-7--|
g|-9/11--11-10-11---11-12----------------------------------4-6--------|
D|--------------------------------------------------------------------|
A|--------------------------------------------------------------------|
E|--------------------------------------------------------------------|


e|-3-3--5-7-----9/11-11-12--12p10----11p12--------------|
b|-5-5--6-8----10/12-12-----------12--------12p10--7/8--|
g|-------------------------------------------------8/9--|
D|------------------------------------------------------|
A|------------------------------------------------------|
E|------------------------------------------------------|


e|------------------------12-11-14-12------------------|
b|---------9-8-12-9-13-12---------------------9-10-11--|
g|-9--12-10-----------------------------11-12----------|
D|-----------------------------------------------------|
A|-----------------------------------------------------|
E|-----------------------------------------------------|


Voz:

Amor, amor que esta sucediendo
Amor, amor que te esta pasando

e|------2-3-------------------|
b|--3-5-----3-5---5-----------|
g|--------------4---0-2-3-4---|
D|----------------------------|
A|----------------------------|
E|----------------------------|

Amor, amor porque te alejas
Porque te muestras tan indiferente

e|--12/15-14-12-------------------------------|
b|--------------15-13-12----------------------|
g|-----------------------14-12-11-------------|
D|--------------------------------14-12-10-9--|
A|--------------------------------------------|
E|--------------------------------------------|

Porque matarme de esta manera
sabiendo que eres el aire que respiro
porque acabar años de ternura
de comprensión cariños y de besos.

(Repetir desde la introducción)

...tu eres mi luz tu eres mi alegría
Tu eres mi fe mi único consuelo
Amor, amor que triunfe lo nuestro
Nuevas vivencias nueva luna de miel.


e|---11-14-11/12--11-12-13-14-11-11/12--|
b|-12-----------------------------------|
g|--------------------------------------|
D|--------------------------------------|
A|--------------------------------------|
E|--------------------------------------|

e|--------------------------------------------------------11-12--|
b|-12-13-14-15-12-13-10-12-13-12-10------------10-12-10-12-------|
g|---------------------------------12-----11-12------------------|
D|-----------------------------------13-14-----------------------|
A|---------------------------------------------------------------|
E|---------------------------------------------------------------|

e|-12/14-14-11-12--12/14-14-11-12---------------10---|
b|-------------------------------------10-12-13------|
g|-12/14-14-11-12--12/14-14-11-12---12---------------|
D|---------------------------------------------------|
A|---------------------------------------------------|
E|---------------------------------------------------|

   Paj    pa ca pas   ti     tu cuy cus pas

e|-12/15--15-14-12----12/15--15-15--17--12--|
b|-13/17--17-15-13----13/17--17-17--17--13--|
g|------------------------------------------|
D|------------------------------------------|
A|------------------------------------------|
E|------------------------------------------|


e|---------------------------10-10/12---------------10--|
b|-------------------10-12-13--------------10-12-13-----|
g|---------9-10-11-12-------------------12--------------|
D|--9-10-12---------------------------------------------|
A|------------------------------------------------------|
E|------------------------------------------------------|


   ya nan nay cu tin  lla    qui ta  ta  quin

e|-12-15--15--17--17--15/12--12--15--12--10--|
b|-13-17--17--17--17---------13--17--13--12--|
g|-------------------------------------------|
D|-------------------------------------------|
A|-------------------------------------------|
E|-------------------------------------------|


e|--------------------------------9-10---------------10--|
b|--------10-12-------10-11-12-13-----------10-12-13-----|
g|--11-12------11-12---------------------12--------------|
D|-------------------------------------------------------|
A|-------------------------------------------------------|
E|-------------------------------------------------------|

   Paj    pa ca pas   ti     tu cuy cus pas

e|-12/15--15-14-12----12/15--15-15--17--12--|
b|-13/17--17-15-13----13/17--17-17--17--13--|
g|------------------------------------------|
D|------------------------------------------|
A|------------------------------------------|
E|------------------------------------------|


e|---------------------------10-10/12---------------10--|
b|-------------------10-12-13--------------10-12-13-----|
g|---------9-10-11-12-------------------12--------------|
D|--9-10-12---------------------------------------------|
A|------------------------------------------------------|
E|------------------------------------------------------|


   ya nan nay cu tin  lla    qui ta  ta  quin

e|-12-15--15--17--17--15/12--12--15--12--10--|
b|-13-17--17--17--17---------13--17--13--12--|
g|-------------------------------------------|
D|-------------------------------------------|
A|-------------------------------------------|
E|-------------------------------------------|


e|--------------------------------9-10----10-9-8-7--|
b|--------10-12-------10-11-12-13-------------------|
g|--11-12------11-12--------------------------------|
D|--------------------------------------------------|
A|--------------------------------------------------|
E|--------------------------------------------------|


   Chay na son    qo llay wa ñuy wa ñuy ta

e|-12---12-12p10----------------------------|
b|-12---12-12-----12-12---10-9---10-12--7---|
g|----------------12-12---11-10--11-12--8---|
D|------------------------------------------|
A|------------------------------------------|
E|------------------------------------------|

   ya war ta  wa qan ya nay chin ca  pi

e|----------------------10-----------------|
b|-7--8---10--12-12--12-12--12---10--7/8---|
g|-8--9---11--12-12--12-----12---11--8/9---|
D|-----------------------------------------|
A|-----------------------------------------|
E|-----------------------------------------|

   Chay na son    qo llay wa ñuy wa ñuy ta

e|-12---12-12p10----------------------------|
b|-12---12-12-----12-12---10-9---10-12--7---|
g|----------------12-12---11-10--11-12--8---|
D|------------------------------------------|
A|------------------------------------------|
E|------------------------------------------|

   ya war ta  wa qan ya nay chin ca  pi

e|----------------------10-----------------|
b|-7--8---10--12-12--12-12--12---10--7/8---|
g|-8--9---11--12-12--12-----12---11--8/9---|
D|-----------------------------------------|
A|-----------------------------------------|
E|-----------------------------------------|

   ya war ta  wa qan ya nay chin ca  pi

e|----------------------10-----------------|
b|-7--8---10--12-12--12-12--12---10--7/8---|
g|-8--9---11--12-12--12-----12---11--8/9---|
D|-----------------------------------------|
A|-----------------------------------------|
E|-----------------------------------------|


e|---------------------------11-------11-12----12--|
b|---------10-12-14-10-12-14----12-14----------12--|
g|-9----12-------------------------------------12--|
D|-------------------------------------------------|
A|-------------------------------------------------|
E|-------------------------------------------------|
Suggest correction
Give kudos to tab author, rate the tab!
1 2 3 4 5
comments
print report bad tab
guest
You may want to rate the tab now too:
select rating
Wanna post a correction for this tab? Suggest correction