Oops, an error
Loading. Please wait.

Mambo De Machahuay Tab

22 views 1 this week
no commentswrite comment
1 2 3 4 5
3 more votes to show rating
add to favorites
launch autoscroll
font size
0
reset
how to read this tab
guitar tuner
Autoscroll
slow
fast
+/-
esc
set tempo
stop
Help us to improve Ultimate-Guitar.com Take our survey!
×
1.---0-2-2-5-2--2-2-0--2
2.-3------------------3-
3.----------------------
4.----------------------
5.----------------------
6.----------------------

1.---0-2-2-5-2--2-2-0--2
2.-3------------------3-
3.----------------------
4.----------------------
5.----------------------
6.----------------------

1.-2-0-----0---------0-2
2.-----3-3-------3-3----
3.-----------2-2--------
4.----------------------
5.----------------------
6.----------------------

1.-2-0-----0------------
2.-----3-3-------3-3-3-0
3.-----------2-2--------
4.----------------------
5.----------------------
6.----------------------

Bueno espero les guste...
Suggest correction
Give kudos to tab author, rate the tab!
1 2 3 4 5
comments
print report bad tab
guest
You may want to rate the tab now too:
select rating
Wanna post a correction for this tab? Suggest correction