Oops, an error
Loading. Please wait.

Requiem Para El Amor Tab

28 views 1 this week
no commentswrite comment
1 2 3 4 5
3 more votes to show rating
add to favorites
launch autoscroll
font size
0
reset
how to read this tab
guitar tuner
Autoscroll
slow
fast
+/-
esc
set tempo
stop
Help us to improve Ultimate-Guitar.com Take our survey!
×
Este acústico la toca una sola guitarra,
 Rodolfo Gaitán castro y acompañada de la voz de su hermano
diosdado:
las letras las hice juntas ya que no habia suficiente espacio
para ellas ,xfavor  quieren escuchar esta version
copien esta direccion en internet:


Intro:
             SOL          SOL1        SOL          RE        SOL
e--------------0-----|------0-----|-----0-----|----0-----|-0-----0-|
b------------3-3-3-3-|----3-3-3-3-|---3-3-3-3-|---3----3-|-3--3--3-|
g----------0---0--0--|---0--0--0--|--0--0--0--|--2----2--|-0-0-0-0-|
D--------------------|------2-----|-----------|-0----0---|-0-----0-|
A--------------2-----|--3---------|-----2-----|----------|-2-----2-|
E--11/3--3-----------|------------|-3---------|----------|-3-----3-|

               SOL        SI     MIm     SI 7    DO     MI     LAm
Unréquiemparaelamornosvamosadedicarparadarleunbuenfinal..pues lo que
e----------------0-----|-2-----|-0-----|-2-----|------|------|------|
b----------------3--3--|-4--4--|-0--0--|-4--4--|------|------|------|
g----------------0-0-0-|-4-4-4-|-0-0-0-|-2-2-2-|---0--|---1--|---2--|
D----------------------|-------|-------|-------|--2-2-|--2-2-|--2-2-|
A----------------------|-------|-------|-------|-3----|-2----|-0----|
E----------------3-----|-2-----|-0-----|-2-----|------|------|------|

      DO        RE         DO           RE         SOL
Hubo entre los dos,noinsistaspordemásqueyatodoacabo.
e-----------|-2-----|-0------------|---2-----|-3-----3-----3-|
b-----------|-1--1--|-1--1---1-----|---3--1--|-3--0--3--0--3-|
g------0----|-2-2-2-|-0-0-0-----0--|---2-2-2-|-0-0-0-0-0-0-0-|
D-----2-2---|-0-----|----------2-2-|---0-----|-0-------------|
A----3------|-------|--------------|---------|-2-------------|
E-----------|-------|--------------|---------|-3-----3-------|


              SOL        RE     SOL    REm      DO       MI
Es momentodeapagar esaslucesdelsalón,pueselpúblicomarcho
e--------------3------|-2-----|-0----|-1-----|--------|------|
b--------------3-0----|-3-3-3-|-3-0--|-3-3-3-|--------|------|
g--------------0--0^2-|-2--2--|-0--0-|-2--2--|-----0--|--1-1-|
D---------------------|-0-----|------|-0-----|------2-|---2--|
A---------------------|-------|------|-------|----3---|-2----|
E--------------3------|-------|-3----|-------|--------|------|

      LAm         RE       Z      LAm-DO    RE        SOL
Solo quedamostúyyoyestanfácilentenderquenopodemosseguir
e-------------|--2----|----0-----|-------|-2-----|--3----------|
b-------------|--3-1--|----5-----|-1x----|-3-1-1-|--3-0----0-0-|
g----2----2-2-|--2--2-|----5-5-5-|-2x-0--|-2--2--|--0--0----0--|
D---2-2--2-2--|--0----|----0--4--|-----2-|-0-----|-------------|
A---0----0----|-------|----5-----|-0-----|-------|-------------|
E-------------|-------|----x-----|-------|-------|--3----3-----|

     REm      SOL     DO      MI       LAm           SOL
                  Y yo seré...    el que de el toque final..
e--1---1---|-------|-------|------|------------|------3----|
b--3---3---|-------|-------|------|------------|------3----|
g--2-2-2-2-|--0--0-|----0--|--1-1-|--2-----2-2-|-------0^2-|
D--0---0---|-------|-----2-|---2--|---2-2---2--|-----------|
A----------|-------|---3---|-2----|-0---0------|-----------|
E----------|-3--3--|-------|------|------------|------3----|

      SIm       MI   LAm    DO     RE       Z    LAm-DO   SOL
         Heamadosinsaber,hebuscadotucalorynotepuedoentender
e-2----------|-----|-----|-0-----|-2----|-0-----|-------|-------|
b-3-3-3-3----|-----|-----|-1-----|-3-1--|-5-----|-1x----|---0-0-|
g-4--4---4---|-1-1-|--2--|-0-0-0-|-2--2-|-5-5-5-|-2x-0--|----0--|
D---------4--|--2--|---2-|----2--|-0----|-0--4--|-----2-|-------|
A------------|-----|-0---|-------|------|-5-----|-0-----|-------|
E-2-----1--0-|-----|-----|-------|------|-x-----|-------|-3-----|


    REm      SOL     DO     MI    LAm  SOL  RE     SOL        SIm
                 Porquellorar...  soloaplaudeestacanción...
e-1---1---|-------|------|------|-----|-3-|-----|---3----|-2-----------|
b-3---3---|-------|------|------|-----|-3-|-1-1-|---3----|-3-3-3--3----|
g-2-2-2-2-|--0--0-|---0--|--1-1-|--2--|-0-|--2--|----0^2-|-4--4----4---|
D-0---0---|-------|----2-|---2--|---2-|---|-----|--------|----------4--|
A---------|-------|--3---|-2----|-0---|---|-----|--------|-------------|
E---------|-3--3--|------|------|-----|-3-|-----|---3----|-2------1--0-|

   MI    LAm    DO       RE              Z
Unréquiemparaelamorunamorqueacaba así.         nuestra mejor actuación..
e------|------|------|---2----|-----0---------0-|
b------|-1----|-1----|---3-1--|-----5---------5-|
g--1-1-|-2-2--|--0-0-|---2--2-|-----5--5---5--5-|
D---2--|----2-|---2--|---0----|-----0----4----0-|
A------|------|------|--------|-----5---------5-|
E------|------|------|--------|-----x---------x-|

    PUNTEO 1  ( X2 VECES)
e-----------------------|-------------------------|---------------------|
b-----------------------|-------------------------|---1-1-1-1-1-1^3-0-0-|
g--0-0-0-4-2-0----------|-------------------------|---------------------|
D--------------2-0------|-------------------0-2---|-2-------------------|
A-----------------2-0---|-2-----2-----2---------3-|---------------------|
E---------------------3-|---3-5---3-5---3-5-------|---------------------|

e--------------------|---------------------------|
b--------------0-0^1-|---------------------------|
g----0-2-4-2-0-------|-2-2---0-2-2---0-2^3^2-0-0-|
D--0-----------------|-----2-------2-------------|
A--------------------|---------------------------|
E--------------------|---------------------------|

LA PARTE 2 SE TOCA IGUAL NO MAS CAMBIENLE LA LETRA Y LA TERMINAN
CON EL PUNTEO 1 ,LUEGO TOCAS ESTE FINAL:

e------------------------------|
b------------------------------|
g--0-0-0-4-2-0-----------------|
D--------------0^2-0-----------|
A--------------------0^2-0-----|
E--------------------------0^3-|


/ DESLIZAR SIN TOCAR EL SEGUNDO

^ TOCAR APAGANDO EL SONIDO

X PALM MUTE

RECOMIENDO ESCUCHAR EL ENLACE DE MÚSICA EN  0.5
Suggest correction
Give kudos to tab author, rate the tab!
1 2 3 4 5
comments
print report bad tab
guest
You may want to rate the tab now too:
select rating
Wanna post a correction for this tab? Suggest correction