Oops, an error
Loading. Please wait.

Tombless Tab

version 1
version 1

Whole song

Interactive

by Gaza
1,121 views 1 this week
no commentswrite comment
1 2 3 4 5
please rate
add to favorites
launch autoscroll
font size
0
reset
how to read this tab
guitar tuner
Autoscroll
slow
fast
+/-
esc
set tempo
stop
Help us to improve Ultimate-Guitar.com Take our survey!
×
Difficulty
Tuning
intermediate
C G C F A D
Gaza
http://gazamusic.bandcamp.com/

Tombless

From "He Is Never Coming Back"

Drop-C tuning (low-high CGCFAD)


Riff 1:

The high notes are tapped with the right hand,
while the left hand hammers on the 1st fret and slides up.

     T          T         T         T
||--------------------------------------------||
||--------------------------------------------||
||*------------------------------------------*||
||*------------------------------------------*||
||--------------------------------------------||
||---13p12-1/--13p12------13p12-1/--13p12-----||


Riff 2:

Again the high notes are tapped with the right hand,
while the left hand hammers the low notes and chords.

        T        T        T        T           T        T        T        T
||---------------------------------------|--------------------------------------|
||---------------------------------------|--------------------------------------|
||*--------------------------------------|--------------------------------------|
||*--------------------------------------|--------------------------------------|
||---2--------1--------3--------2--------|--1--------3--------2--------1--------|
||---2--13p12-1--13p12-3--13p12-2--13p12-|--1--13p12-3--13p12-2--13p12-1--13p12-|


      T       T       T       T       T
|--------------------------------------------||
|--------------------------------------------||
|-------------------------------------------*||
|-------------------------------------------*||
|--3-----------------------------------------||
|--3--13p12-2-13p12-1-13p12-3-13p12-4-13p12--||


Riff 3 (5/4):

||----------------------------------------||
||----------------------------------------||
||*--------------------------------------*||
||*--------------------------------------*||
||----------------------------------------||
||---0/---0/--0/---0/--0/---0/--0/---0/---||


Chord before Riff 1 starts again:


||-------------------|
||-------------------|
||-------------------|
||--0----------------|
||--0----------------|
||--0----------------|


Riff 4:

Play the half-step whammies by bending the guitar's neck:

   \½/      \½/         \½/
||--------------------|----------------------------||
||--------------------|----------------------------||
||*-------------------|-----------0---------------*||
||*-3--------3--------|--3--------4^(5)^(4)-------*||
||--------------------|----------------------------||
||--3--------3--------|--3--------4^(5)^(4)--------||


Riff 5:

Tremolo picking

||------------------------------------------------------------------|
||------------------------------------------------------------------|
||*-----------------------------------------------------------------|
||*-----------------------------------------------------------------|
||--7-7-7-7-7-7-------------8-8-8-8-8-8-----------------------------|
||--------------0-0-0-0-0-0-------------8-8-8-8-8-8-3-3-3-3-1-1-1-1-|


|-----------------------------------------------------------------------------------------||
|-----------------------------------------------------------------------------------------||
|----------------------------------------------------------------------------------------*||
|----------------------------------------------------------------------------------------*||
|-<5><5><5><5><5><5>------------------<5><5><5><5><5><5><5><5><5><5><5><5><5><5><5><5><5>-||
|-------------------<3><3><3><3><3><3>----------------------------------------------------||


Riff 6:

||-------------------------|----------------------||
||-------------------------|----------------------||
||*-9-------10-------------|------9--------------*||
||*------------------------|---------------------*||
||--7---0----8---8---3--1--|--0---7---0-----------||
||------0--------8---3--1--|--0-------0-----------||


Riff 7:

Strum these slowly

||-------------------|--------------------|-------------------|--------------------|
||-------------------|--------------------|-------------------|--------------------|
||--0----------------|-----------0--------|-------------------|--------------------|
||--3----------------|-----------3--------|--2----------------|-----------2--------|
||--5----------------|-----------5--------|--5----------------|-----------5--------|
||--3----------------|-----------3--------|--2----------------|-----------2--------|

  \½/
|-------------------|--------------------|-------------------|--------------------|
|-------------------|--------------------|-------------------|--------------------|
|--0----------------|--------------------|-------------------|--------------------|
|--3----------------|-----------3--------|--2----------------|-----------2--------|
|--5----------------|-----------5--------|--5----------------|-----------5--------|
|--3----------------|-----------3--------|--2----------------|-----------2--------|


|-------------------|-------------------||
|-------------------|-------------------||
|-------------------|-------------------||
|--1----------------|-------------------||
|--5----------------|-------------------||
|--1----------------|-------------------||



Tablature Legend
----------------
 - natural harmonic
h - hammer on
p - pull off
^ - bend
\n/ - tremolo bar dip
/ -  slide up
\ -  slide down
T - tapping
Suggest correction
What's this?
You can suggest a correction to this tab. Community and Mods will review your correction and vote to approve or reject it.
comments
We did not receive enough feedback on this tab! Please rate:
print report bad tab
1 2 3 4 5
guest
You may want to rate the tab now too:
select rating
Please do not post tabs as comments. Select "correction" instead!