Oops, an error
Loading. Please wait.

I Like Chopin chords

version 2
version 2

Whole song

  • INTRO and instrumental riff included with capo on ... Show more

Interactive

by Gazebo
127 views 9 this week
no commentswrite comment
1 2 3 4 5
3 more votes to show rating
add to favorites
×
Save as Personal and add changes to this tab that will be seen only by you. Learn more ›
×
You can save this tab as Personal to edit and correct it or add notes. All changes will be seen only by you. Learn more »
launch autoscroll
font size
0
reset
transpose
0
reset
display chords
guitar tuner
backing track
0:00
0:00
edit
Autoscroll
slow
fast
+/-
esc
set tempo
stop
About this tab version
INTRO and instrumental riff included with capo on the 5th fret for acoustic playing. Was this info helpful? Yes No
Strumming
There is no strumming pattern for this song yet. and get +5 IQ
CAPO 5

[Intro]

Am  F  G  Em  (2x)

e|------0h1---1-------------3p1p0---0--------3--1--0h1---1-------------3p1p0---0------------|
B|----3-------------------------------3--1---------------------------------------3--1--3/5--|
G|--2-------2---2--3---2--3-------0--------------------2---2--3---2--3-------0--------------|
D|------------------------------------------------------------------------------------------|
A|------------------------------------------------------------------------------------------|
E|------------------------------------------------------------------------------------------|


  C           Am
Remember that piano
     F         G
So delightful unusual
     C          Am
That classic sensation
     F        G
Sentimental confusion

Em      F
Used to say
  Em      F
I like Chopin

Em      F      G       E
Love me now and again, Woah-woh-ohh
Am               C
Rainy days never say goodbye
G                 E
To desire when we are together
C                  Em
Rainy days growing in your eyes
        F         G
Tell me where's my way


[Instrumental]

E  Am  F  G
Em F  Dm  Em

e|------0h1---1-------------3p1p0---0--------3--1--0h1---1-------------3p1p0---0------------|
B|----3-------------------------------3--1---------------------------------------3--1--3/5--|
G|--2-------2---2--3---2--3-------0--------------------2---2--3---2--3-------0--------------|
D|------------------------------------------------------------------------------------------|
A|------------------------------------------------------------------------------------------|
E|------------------------------------------------------------------------------------------|

 C           Am
Imagine your face in
     F         G
A sunshine reflection
  C         Am
A vision of blue skies
    F       G
Forever distractions

Em      F
Used to say
  Em      F
I like Chopin

Em      F      G       E
Love me now and again, Woah-woh-ohh
Am               C
Rainy days never say goodbye
G                 E
To desire when we are together
C                  Em
Rainy days growing in your eyes
        F         G
Tell me where's my way


[Interlude]

E  Am  F  G
Em F  Dm  Em

e|------0h1---1-------------3p1p0---0--------3--1--0h1---1-------------3p1p0---0------------|
B|----3-------------------------------3--1---------------------------------------3--1--3/5--|
G|--2-------2---2--3---2--3-------0--------------------2---2--3---2--3-------0--------------|
D|------------------------------------------------------------------------------------------|
A|------------------------------------------------------------------------------------------|
E|------------------------------------------------------------------------------------------|

Am               C
Rainy days never say goodbye
G                 E
To desire when we are together
C                  Em
Rainy days growing in your eyes
        F         G
Tell me where's my way

Am               C
Rainy days never say goodbye
G                 E
To desire when we are together
C                  Em
Rainy days growing in your eyes
        F           G
Tell me where's my way.

[Outro]

E  Am  F  G
Em F  Dm  Em

e|------0h1---1-------------3p1p0---0--------3--1--0h1---1-------------3p1p0---0------------|
B|----3-------------------------------3--1---------------------------------------3--1--3/5--|
G|--2-------2---2--3---2--3-------0--------------------2---2--3---2--3-------0--------------|
D|------------------------------------------------------------------------------------------|
A|------------------------------------------------------------------------------------------|
E|------------------------------------------------------------------------------------------|

            
            
Suggest correction
Creating personal tab
Creating personal tab
You can edit any tab online and save it as your Personal.

You can edit, replace or remove any tab part or add personal notes – all changes will be seen only by you.

Personal tabs can be accessed anytime from any device, even offline.
Learn more »
Give kudos to tab author, rate the tab!
1 2 3 4 5
comments
print report bad tab
guest
You may want to rate the tab now too:
select rating
Wanna post a correction for this tab? Suggest correction