Oops, an error
Loading. Please wait.

Antistatico Shock Bass Tab

58 views 1 this week
no commentswrite comment
1 2 3 4 5
3 more votes to show rating
add to favorites
launch autoscroll
font size
0
reset
guitar tuner
Autoscroll
slow
fast
+/-
esc
set tempo
stop
Help us to improve Ultimate-Guitar.com Take our survey!
×
GAZNEVADA - ANTISTATICO SHOCK
ALBUM: SICK SOUNDTRACK (1980)
BASSIST: CHAINSAW SALLY

VERSE

E ------------------------------------|
A -------------------------5----------|
D --5-5-5-5-5-5--7-7---------4--------|
G --------------------7---------------|

BRIDGE
                                      AND BACK TO THE VERSE
E ---------------------------------------------------------------------|
A ---5-5-5-5-5-5-5-5-------------5--------------------------------5----|
D ---------------------------------4-----5-5-5-5-5-5---7-7----------4--|
G -------------------------7-------------------------------7-----------|


TABBED BY JAH WOBBLE IS GOD

http://www.myspace.com/gaznevada
Suggest correction
Give kudos to tab author, rate the tab!
1 2 3 4 5
comments
print report bad tab
guest
You may want to rate the tab now too:
select rating
Wanna post a correction for this tab? Suggest correction